Cifra Club

Vai Que Bebereis

Henrique e Juliano

Cifra: Principal (violão e guitarra)
exibições 8.629
Tom: A
[Intro] G  Am7  C

E|------------------------------------------|
B|---8p7-----8p7----------------------------|
G|-7-----9-7-----9--------------------------|
D|-----------------7/9-5-5/7--7/9-7h9p7-5---|
A|----------------------------------------7-|
E|------------------------------------------|

[Primeira Parte]

G
  Falei que não chapava chapei
D9                           Am7
   Falei que não chorava chorei
     C                          G
Queimei a língua de novo outra vez
                         D9
Falei que não ligava liguei
                          Am7
Falei que não voltava voltei

[Pré-Refrão]

C                            Em
Essa minha história dava um livro
        D9/F#                   Am7
É só beber que eu esqueço o prometido
                 C
E se quer um conselho

[Refrão]

G                                D9
  Não diga dessa água nunca bebereis
Vai que bebereis
           Am7
É praga de ex
                C               G
Era pra ser um gole, eu me afoguei

                               D9
Não diga dessa água nunca bebereis
Vai que bebereis
           Am7
É praga de ex
                C               G
Era pra ser um gole, eu me afoguei

[Solo] G  D9  Am7  C
       G  D9  Am7  C

E|------------------------------------------|
B|---8p7-----8p7----------------------------|
G|-7-----9-7-----9--------------------------|
D|-----------------7/9-5-5/7----------------|
A|------------------------------------------|
E|------------------------------------------|

E|------------------------------------------|
B|-10-10-10-12--8h10-8----------------------|
G|---------------------9-9------------------|
D|------------------------------------------|
A|------------------------------------------|
E|------------------------------------------|

E|------------------------------------------|
B|-10-10-10-12--8h10-8--8-8-----------------|
G|------------------------------------------|
D|------------------------------------------|
A|------------------------------------------|
E|------------------------------------------|

E|------------------------------------------|
B|-10-10-10-12--8h10-8-----10/12-8-8/10-----|
G|---------------------9-9------------------|
D|------------------------------------------|
A|------------------------------------------|
E|------------------------------------------|

E|-------------------------------10-12-10-10|
B|-10-10-10-12--8h10-8-----10/12------------|
G|---------------------9-9------------------|
D|------------------------------------------|
A|------------------------------------------|
E|------------------------------------------|

[Primeira Parte]

G
  Falei que não chapava chapei
D9                           Am7
   Falei que não chorava chorei
     C                          G
Queimei a língua de novo outra vez
                         D9
Falei que não ligava liguei
                          Am7
Falei que não voltava voltei

[Pré-Refrão]

C                            Em
Essa minha história dava um livro
        D9/F#                   Am7
É só beber que eu esqueço o prometido
                 C
E se quer um conselho

[Refrão]

G                                D9
  Não diga dessa água nunca bebereis
Vai que bebereis
           Am7
É praga de ex
                C               G
Era pra ser um gole, eu me afoguei

                               D9
Não diga dessa água nunca bebereis
Vai que bebereis
           Am7
É praga de ex
                C               
Era pra ser um gole, eu me afoguei

[Solo] G  

E|------------------------------------------|
B|---8p7-----8p7----------------------------|
G|-7-----9-7-----9--------------------------|
D|-----------------7/9-5-5/7----------------|
A|------------------------------------------|
E|------------------------------------------|

D9
  Vai que bebereis
           Am7
É praga de ex
                C               G        
Era pra ser um gole, eu me afoguei

                               D9
Não diga dessa água nunca bebereis
Vai que bebereis
           Am7
É praga de ex
                C               G     
Era pra ser um gole, eu me afoguei

[Final]

E|------------------------------------------|
B|---8p7-----8p7----10-12-12-12-------------|
G|-7-----9-7-----9--------------------------|
D|------------------------------------------|
A|------------------------------------------|
E|------------------------------------------|
Acordes para:
    Composição: Junior Pepato / Larissa Ferreira / Rafa Borges / Thales Lessa Colaboração e revisão:
    • Thiago Almeida
    • Marcos Miranda

    0 comentários

    mostrar mais comentários

    Conseguiu tocar?

    3 tocaram 0 ainda não

    Grave um vídeo tocando Vai Que Bebereis e mande pra gente!

    00:00 / 00:00
    outros vídeos desta música
    repetir qualidade Automático
    Outros vídeos desta música
    00:00 / 00:00
    Automático
    OK