Cifra Club

Pantera Cor-de-rosa

Henry Mancini

Cifra: Principal
exibições 423.646
Tom: G
Intro:
E|------------------------------------------------------|
B|------------------------------------------------------|
G|------------------------------------------------------|
D|------------------------------------------------------|
A|-4-5-6-7-----7----------6-5-4-3-----------------------|
E|-------0---7--------------------3/8-------------------|

Frase 1:
E|------------------------------------------------------|
B|------------------------------------------------------|
G|---------------------5-4------4-3---3-2-0-------------|
D|---------4-5-----4-5-----4-5--------------0-2---------|
A|-4-5-6-7-----6-7--------------------------------------|
E|------------------------------------------------------|

Frase 2:
E|------------------------------------------------------|
B|-----------------------------5-4----------------------|
G|----------------------5-4-----------------------------|
D|---------4-5-----4-5-----4-5--------------------------|
A|-4-5-6-7-----6-7--------------------------------------|
E|------------------------------------------------------|

Frase 3:
E|------------------------------------------------------|
B|------------------------------------------------------|
G|---------------------5-4------4-3---3-2-0-------------|
D|---------4-5-----4-5-----4-5--------------0-2---------|
A|-4-5-6-7-----6-7--------------------------------------|
E|------------------------------------------------------|

Frase 4:
E|------------------------------------------------------|
B|---------5-3-0----------------------------------------|
G|---------------3-2-0-2/3-2/3-2/3-2/3------------------|
D|-------------------------------------2-0-2-2----------|
A|-4-5-6-7----------------------------------------------|
E|------------------------------------------------------|
Acordes para:

    0 comentários

      mostrar mais comentários

      Conseguiu tocar?

      16tocaram1ainda não

      Grave um vídeo tocando Pantera Cor-de-rosa e mande pra gente!

      00:00 / 00:00
      outros vídeos desta música
      repetirqualidadeautomática
      Outro vídeos desta música
        00:00 / 00:00
        automática
        OK