Cifra Club

Off My Shoulders

Hidden In Plain View

Cifra: Principal (violão e guitarra)
tom: G
Drop-D
Only guitar 1

e|-----------------------------------|
B|-----------------------------------|
G|-----------------------------------|
D|-0--9--5--0---12---0--9--5--0--12--|
A|-0--9--5--0---12---0--9--5--0--12--|
D|-0--9--5--0---12---0--9--5--0--12--|
pm...........       ...........   

e|-----------|
B|-----------|
G|-----------|
D|-2-5-2-5---|
A|-2-5-2-5---|
D|-2-5-2-5---|
pm........

Chorus:
e|-----------------------------------------|
B|-----------------------------------------|
G|-----------------------------------------|
D|-0--9--0--9---2--5--5/7--2--5--5/7---0---|
A|-0--9--0--9---2--5--5/7--2--5--5/7---0---|
D|-0--9--0--9---2--5--5/7--2--5--5/7---0---|

Verse 2:
e|-----------------------------------|
B|-----------------------------------|
G|-----------------------------------|
D|-0--9--5--0---12---0--9--5--0--12--|
A|-0--9--5--0---12---0--9--5--0--12--|
D|-0--9--5--0---12---0--9--5--0--12--|
pm...........       ...........

e|------------------------------------|
B|------------------------------------|
G|------------------------------------|
D|-2-5-7-7-7--7-7-7---2-5-0-0-0-0-0---|
A|-2-5-7-7-7--7-7-7---2-5-0-0-0-0-0---|
D|-2-5-7-7-7--7-7-7---2-5-0-0-0-0-0---|
pm..........  .....  .....

Chorus:
e|-------------------------------------|
B|-------------------------------------|
G|-------------------------------------|
D|-0--9--0--9---2--5--5/7--2--5--5/7---|
A|-0--9--0--9---2--5--5/7--2--5--5/7---|
D|-0--9--0--9---2--5--5/7--2--5--5/7---|

Bridge:
e|---------------------------------------------|
B|---------------------------------------------|
G|---------------------------------------------|
D|--9--7---5--2---0----9--7---5--2---0---0-----|
A|--9--7---5--2---0----9--7---5--2---0---0-----|
D|--9--7---5--2---0----9--7---5--2---0---0-----|

Chorus:
e|--------------------------------------|
B|--------------------------------------|
G|--------------------------------------|
D|-0--9--0--9---2--5--5/7--2--5--5/7----|
A|-0--9--0--9---2--5--5/7--2--5--5/7----|
D|-0--9--0--9---2--5--5/7--2--5--5/7----|

Outro:
e|------------------------------------------------------------------------|
B|------------------------------------------------------------------------|
G|------------------------------------------------------------------------|
D|-0-0---0-0--0-0--0-0--0-0----9-9---9-9--9-9--9-----x2--2-2-2-2-5-5-5-5--|
A|-0-0---0-0--0-0--0-0--0-0----9-9---9-9--9-9--9---------2-2-2-2-5-5-5-5--|
D|-0-0---0-0--0-0--0-0--0-0----9-9---9-9--9-9--9---------2-2-2-2-5-5-5-5--|
00:00 / 00:00
Outros vídeos desta música
Repetir
Outros vídeos desta música
Composição de Hidden in Plain View / Rob Freeman
221 exibições
    • ½ Tom
    • A
    • Bb
    • B
    • C
    • Db
    • D
    • Eb
    • E
    • F
    • F#
    • G
    • Ab
  • Adicionar à lista

    0 comentários

    Ver todos os comentários

    Entre para oCifra Club PRO

    Tenha acesso a benefícios exclusivos no App e no Site

    • Chega de anúncios

    • Prioridade de compra em lançamentos

    • Mais recursos no app do Afinador

    • Atendimento Prioritário

    • Descontos nos produtos Cifra Club

    • Ajude a produzir mais conteúdo

    00:00 / 00:00

    Cifra Club Pro

    Aproveite o Cifra Club com benefícios exclusivos e sem anúncios
    Cifra Club Pro
    Aproveite o Cifra Club com benefícios exclusivos e sem anúncios
    OK