Cifra Club

Aprenda

Enjoy The Silence

Him

Cifra: Principal (violão e guitarra)
tom: G
Intro: 
             F#m                          Am               4x
E|--------------------------|---------------------------|
B|--------------------------|---------------------------|
G|--------------------------|---------------------------|
D|---4----4--4--4--4--4--4--|--7----7--7--7--7--7--7----|
A|---4----4--4--4--4--4--4--|--7----7--7--7--7--7--7----|
E|---2----2--2--2--2--2--2--|--5----5--5--5--5--5--5----|  
           
             F#m                          Am                          D9               2x
  |--------------------------|---------------------------|---------------------------|  
  |--------------------------|---------------------------|---------------------------|
  |--------------------------|---------------------------|--7--7--7--7--7--7--7--7---|
  |--4--4--4--4--4--4--4--4--|--7--7--7--7--7--7--7--7---|--7--7--7--7--7--7--7--7---|
  |--4--4--4--4--4--4--4--4--|--7--7--7--7--7--7--7--7---|--5--5--5--5--5--5--5--5---|
  |--2--2--2--2--2--2--2--2--|--5--5--5--5--5--5--5--5---|---------------------------|

 F#m
Words like violence
 Am
Break the silence
 D9
Come crashing in
Into my little world
 F#m
Painful to me
 Am
Pierce right through me
 D9
Can't you understand?
Oh, my little girl

 Bm
All I ever wanted
 D
All I ever needed
 F#m         Am
Is here in my arms
 Bm             D
Words are very unnecessary
 F#m           Fm
They can only do harm

Introdução:       4x
  |--------------------------|--------------------------|
  |--------------------------|--------------------------|
  |--------------------------|--------------------------|
  |---4----4--4--4--4--4--4--|--7----7--7--7--7--7--7---|
  |---4----4--4--4--4--4--4--|--7----7--7--7--7--7--7---|
  |---2----2--2--2--2--2--2--|--5----5--5--5--5--5--5---|
            
           
  F#m
Vows are spoken
  Am
To be broken
  D9
Feelings are intense
Words are trivial
  F#m
Pleasures remain
  Am
So does the pain
  D9
Words are meaningless
And forgettable

  Bm
All I ever wanted
  D
All I ever needed
  F#m         Am
Is here in my arms
  Bm             D
Words are very unnecessary
  F#m             Fm
They can only do harm
All I…

     Riff:


|-----------------------------|-------------------------------|
|-----------------------------|-------------------------------|
|-----------------------------|-------------------------------|
|---------------------6~~~----|---------7~~~------------------|
|---------9-------------------|---------------------7~~~------|
|----7----------7-------------|----7----------5---------------|

|-----------------------------|-------------------------------|
|-----------------------------|-------------------------------|
|-----------------------------|-------------------------------|
|-----------------------------|-------------------------------|
|---------7-----------4~~~----|---------7-----------4~~~------|
|----5----------5-------------|----5----------5---------------|

|-----------------------------|-------------------------------|
|-----------------------------|-------------------------------|
|-----------------------------|-------------------------------|
|---------------------6~~~----|---------7~~~------------------|
|---------9-------------------|---------------------7~~~------|
|----7----------7-------------|----7----------5---------------|

|-----------------------------|-------------------------------|
|-----------------------------|-------------------------------|
|-----------------------------|-------------------------------|
|-----------------------------|-------------------------------|
|---------7~~~--------4~~~----|---------7~~~--------4~~~~-----|
|----5----------5-------------|----5----------5---------------|

|-----------------------------|-------------------------------|
|-----------------------------|-------------------------------|
|-----------------------------|-------------------------------|
|----------------------6~~~---|---------7~~~------------------|
|---------9-------------------|--------------------7~~~-------|
|----7-----------7------------|----7---------5----------------|

|-----------------------------|-------------------------------|
|-----------------------------|-------------------------------|
|-----------------------------|-------------------------------|
|-----------------------------|----------7~~~-----------------|
|---------9------------6~~~---|---------------------7~~~------|
|----7-----------7------------|-----7---------5---------------|

|-----------------------------|-------------------------------|
|-----------------------------|-------------------------------|
|-----------------------------|-------------------------------|
|-----------------------------|-------------------------------|
|---------7------------4~~~---|---------4-----------7~~~------|
|----5-----------5------------|----5----------5---------------|

|-----------------------------|
|-----------------------------|
|-----------------------------|
|-----------------------------|
|-----------7------------4~~~-|
|----5------------5-----------|


 Bm
All I ever wanted
 D
All I ever needed
 F#m         Am
Is here in my arms
 Bm            D
Words are very unnecessary
 F#m             Fm
They can only do harm

 Bm
All I ever wanted
 D
All I ever needed
 F#m          Am
Is here in my arms
 Bm            D
Words are very unnecessary
 F#m             Fm
They can only do harm

     OBS: Arranhar as cordas com a palheta, mais uma vez.

 Bm
All I ever wanted
 D
All I ever needed
 F#m          Am
Is here in my arms
 Bm            D
Words are very unnecessary
 F#m             Fm
They can only do harm

 Bm               D
All I ever wanted
 F#m             Am
All I ever needed
 Bm       D  F#m  Fm
Is here in my arms...
Compositor não encontrado.
Colaboração e revisão:
  • Matheus Augusto
987 exibições
    • ½ Tom
    • A
    • Bb
    • B
    • C
    • Db
    • D
    • Eb
    • E
    • F
    • F#
    • G
    • Ab
  • Adicionar à lista

    0 comentários

    Ver todos os comentários

    Conseguiu tocar?

    0 Tocaram 1 Ainda não

    Grave um vídeo tocando Enjoy The Silence e nos envie!

    00:00 / 00:00
    Outros vídeos desta música
    Repetir Qualidade Automático
    Outros vídeos desta música
    00:00 / 00:00
    Automático

    Cifra Club Pro

    Aproveite o Cifra Club com benefícios exclusivos e sem anúncios
    Cifra Club Pro
    Aproveite o Cifra Club com benefícios exclusivos e sem anúncios
    OK