Cifra Club

Rebel Yell

Him

Cifra: Principal (violão e guitarra)
tom: D
~= deixar soar
x= abafado

Introdução

e|--------------------------------|
B|--------------------------------|
G|--------------------------------|
D|------7h9----7h9----7h9----7h9--|
A|----9------9------9------9------|
E|--7------7------7------7--------|

x2   G5 F#5 E5
e|--------------
B|--------------
G|--------------
D|--5--4--2-----
A|--5--4--2-----
E|--3--2--0-----

e|--------------
B|--------------
G|--7-----------
D|--7-7--9------
A|--5-7--9------
E|----5--7-~~~--

Versos

e|-----------------------------
B|--12-xx-12-xx-12-xx-12-xx----
G|--11-xx-11-xx-11-xx-11-xx----
D|--9--xx-9--xx-9--xx-9--xx----
A|-----------------------------
E|-----------------------------

e|--------------------------------
B|--10-xx--10-xx------------------
G|--9--xx--9--xx------------------
D|--7--xx--7--xx------------------
A|--------------------------------
E|--------------------------------

e|-------------------------
B|--8-xx-8-xx--------------
G|--7-xx-7-xx--------------
D|--5-xx-5-xx--------------
A|-------------------------
E|-------------------------

e|-------------------------
B|--5-xx-------------------
G|--4-xx-7-----------------
D|--2-xx-7-7---------------
A|-------5-7---------------
E|---------5---------------


Refrão (no mesmo compasso que é tocado nos versos)

    B5 A5 G5 E5 D5 A5
e|-------------------
B|-------------------
G|--------------7----
D|--9--7--5--2--7--7-
A|--9--7--5--0--5--7-
E|--7--5--3--0-----5-

Solo:
Não tirei o solo ainda, mas se você entende de pentatônica,
então dê uma enrrolada básica na pentatônica de B que fica muito legal.

qualquer dúvida, biel_guitarman@hotmail.com
Composição de Billy Idol
Colaboração e revisão:
  • Gabriel Coelho
  • felipe domingues
2.698 exibições
    • ½ Tom
    • A
    • Bb
    • B
    • C
    • Db
    • D
    • Eb
    • E
    • F
    • F#
    • G
    • Ab
  • Adicionar à lista

    0 comentários

    Ver todos os comentários

    Conseguiu tocar?

    1 Tocaram 0 Ainda não

    Grave um vídeo tocando Rebel Yell e nos envie!

    00:00 / 00:00
    Outros vídeos desta música
    Repetir Qualidade Automático
    Outros vídeos desta música
    00:00 / 00:00
    Automático

    Cifra Club Pro

    Aproveite o Cifra Club com benefícios exclusivos e sem anúncios
    Cifra Club Pro
    Aproveite o Cifra Club com benefícios exclusivos e sem anúncios
    OK