Cifra Club

Aprenda

Be a Man

Hole

Cifra: Principal (violão e guitarra)
Tom: D
  Intro (Lead guitar)
e|------------------------------------------------------------------------------
B|------------------------------------------------------------------------------
G|---------7-----------5-------------7----------10--------------7--------5------
D|------7-----------5-----5/------7---------10------10\------7--------5-----5\--
A|---5-----------3-------------5---------8----------------5--------3------------
D|------------------------------------------------------------------------------
                                   Verse Variation (played instead of the chord
                                                    during the verse) 
e|-------------------------------|---------------------
B|-------------------------------|---------------------
G|---------2---------------------|---------1-----------
D|------2-----2\---1-------------|------1-----1--------
A|---4-------------3-------------|---3-----------------
D|-------------------------------|---------------------

  Verse (both guitars)                         ****************   
e|----------------------------------------------------------------
B|----------------------------------------------------------------
G|----------------------------------------------------------------
D|---0-0-h3-3-3--00-0-0-h3-3-3--00-0-0-h3-3-3--33-h5-5-5--3-3-3---
A|---0-0-h3-3-3--00-0-0-h3-3-3--00-0-0-h3-3-3--33-h5-5-5--3-3-3---
D|---0-0-h3-3-3--00-0-0-h3-3-3--00-0-0-h3-3-3--33-h5-5-5--3-3-3---

  Chorus (both guitars)    x3            End Chorus with
e|---------------------------|------------------------------
B|---------------------------|------------------------------
G|---------------------------|------------------------------
D|--------1-0-1-0----5-5/-7-7|--------1-0-1-0-~-------------
A|---3-3--1-0-1-0----3-3/-5-5|---3-3--1-0-1-0-~-------------
D|--------1-0-1-0------------|--------1-0-1-0-~-------------

  Solo (Lead Guitar)
e|--------------------------------------------------------3-2-------------------
B|-------------------------------------------------------------3-1-0-1h3--------
G|------2----3-3-2p0------2----4-4-2p0------2----5-5-4h5------------------------
D|------------------------------------------------------------------------------
A|---0-----------------0-----------------0--------------------------------------
D|------------------------------------------------------------------------------
  
  Solo (Rhythm guitar) played with lead guitar
e|------------------------------------------------------------------------------
B|------------------------------------------------------------------------------
G|------2-----------------2-----------------2-----------------------------------
D|------------------------------------------------------------------------------
A|---0-----------------0-----------------0--------------------------------------
D|------------------------------------------------------------------------------

  Outro
e|------------------------------------------------------------------------------
B|------------------------------------------------------------------------------
G|---------7-----------5-------------7----------10--------------7--------5------
D|------7-----------5-----5/------7---------10------10\------7--------5-----5\--
A|---5-----------3-------------5---------8----------------5--------3------------
D|------------------------------------------------------------------------------
                                   
e|--------------------------------------
B|--------------------------------------
G|---------2----------------1-----------
D|------2-----2\---------1-----1----0~--
A|---4----------------3-------------0~--
D|----------------------------------0~--

Song Structure

Intro   (Lead guitar only)
Verse   (2 guitars) x6 (on the x5, lead guitar switches to the intro with verse 
                        variation and plays that twice through).
Chorus  (2 guitars) x1
Verse   (2 guitars) x5 (on the x4, lead guitar switches to the intro with verse
                        variation and plays that once through). 
Chorus  (2 guitars) x1
Verse   (niether guitars play the third verse. The bass does this bit) x2
Solo    (ok, i'm not 100% sure of the solo's accuracy. Just play it twice)    
Verse   (2 guitars) x2 ************** Where these are marked, you don't play 
                                      that bit on the x2
Chorus  (2 guitars) x4
Outro   (Lead guitar only)
Composição de Billy Corgan / Courtney Love / Eric Erlandson
Colaboração e revisão:
  • Élison Duarte
1.074 exibições
    • ½ Tom
    • A
    • Bb
    • B
    • C
    • Db
    • D
    • Eb
    • E
    • F
    • F#
    • G
    • Ab
  • Adicionar à lista

    0 comentários

    Mostrar mais comentários

    Conseguiu tocar?

    1 Tocaram 0 Ainda não

    Grave um vídeo tocando Be a Man e mande pra gente!

    00:00 / 00:00
    outros vídeos desta música
    repetir qualidade Automático
    Outros vídeos desta música
    00:00 / 00:00
    Automático
    OK