Cifra Club

Burn Black

Hole

Cifra: Principal (violão e guitarra)
tom: C
Intro:
e|-------------------------------------------------|
B|-------------------------------------------------|
G|--9-9-9-7-----7-------5-5-5-6------6-------------|
D|--------------0-------0---------------0-----0----|
A|-------------------------------------------------|
E|-------------------------------------------------|

Verse:
(riff A)
"Now you Complain you say....."
e|---------------------------------|
B|---------------------------------|
G|------------5-5-5----5/6---6-6-6-|(4x)
D|-2----2/5---5-5-5----5/6---6-6-6-|
A|-2----2/5---3-3-3----3/4---4-4-4-|
E|-0----0/3------------------------|

Pre|-Chorus:
(riff B)
"Hey, hey this much is true..."
e|-----------------------------------------|
B|-----------------------------------------|
G|-----------------------------------------|(4x)
D|-14-14--12----12-12-12--10-10--11--------|
A|-14-14--12----12-12-12--10-10--11--------|
E|-12-12--10----10-10-10--8--8---9---------|

Riff C:
"And im trying just..."
e|---------------------------------|
B|---------------------------------|
G|---------------------------------|
D|-x-4-x-4-x-4-x-4-x-4-x-4-x-4-x-4-|
A-x-4-x-4-x-4-x-4-x-4-x-4-x-4-x-4-|
e|-x-2-x-2-x-2-x-2-x-2-x-2-x-2-x-2-|

Chorus:
(riff D)
"Never, ever.."
e|---------------------------------|
B|---------------------------------|
G|-10----x-9----9-9--6----x-5------|  (4x)
D|-10----x-9----9-9--6----x-5------|
A|--8----x-7----7-7--4----x-3------|
E|---------------------------------|

Interlude:
(riff E)
e|----------------------------------------------------------|
B|----------------------------------------------------------|
G|----------------------------------------------------------|
D|--------0-----0-------0-----0-------0-----0-------0-----0-|
A|------0-------------0-------------0-------------0---------|
E|----2-----2-2---2-3-----3-3---3-2-----2-2---2-3-----3-3---|

Bridge:
(riff E)
"Shes got vultures.."
e|---------------------------------------------------------------------------------|
B|---------------------------------------------------------------------------------|
G|---------------------------------------------------------------------------------|
D|---------0--------0-----------0--------0-----------0-------0-----------0-------0-|
A|------0--------------------0--------------------0-------------------0------------|
E|---2--------2--2-----2--3--------3--3-----3--2-------2--2-----2--3-------3--3----|

(riff F)
e|---------------------------------------------------------------------------------|
B|---------------------------------------------------------------------------------|
G|-10----10---10--10---11----11---11--11---10----10---10--10---11----11---11--11---|(8x)
D|-10----10---10--10---11----11---11--11---10----10---10--10---11----11---11--11---|
A|-8-----8----8---8----9-----9----9---9----8-----8----8---8----9-----9----9---9----|
E|---------------------------------------------------------------------------------|

Outro:
E|---------------------------------|
B|---------------------------------|
G|-3-3-3-3-3-3-3-3/4-4-4-4-4-4-4-4\| (4x)
D|-4-4-4-4-4-4-4-4/5-5-5-5-5-5-5-5\|
A-4-4-4-4-4-4-4-4/5-5-5-5-5-5-5-5\|
e|-2-2-2-2-2-2-2-2/3-3-3-3-3-3-3-3\|

E|---------------------------------|
B|---------------------------------|
G|-3-3-3-3-3-3-3-3/4---------------|
D|-4-4-4-4-4-4-4-4/5---------------|
A|-4-4-4-4-4-4-4-4/5---------------|
E|-2-2-2-2-2-2-2-2/3---------------|

Lyrics:
Now you complain, you say you want the keys
Over my dead body, baby that's where they'll be
Gaviln knots surround your neck
You say you remember, baby you forget

Hey hey, this much is true
I never trusted you
Hey, hey, this much is true
Now I burn black for you
And I'm trying just to forget
Never I won't
Never I won't
Never
Ever
Never

Saying things that you can't hear
My doll mouth to your deaf ear
Gushing blonde from a violent smear
My doll mouth to your deaf ear

Hey, hey, this much is true
I never twisted you
Hey, hey, this much is true
Baby, I burn black for you
No, I won't go down to it
Never I won't
Ever I won't
Never I won't
Never

Crawl right up the wall
And up the stairs
Down your hall

Now you beg and you want me
Over my dead body, baby that's where I'll be
And you laugh at my disease
While rust runs from my arteries

Hey, hey, this much is true
I never bothered you
Hey, hey, this much is true
Baby I burn black for you
And I'm trying just to forget
Never I won't
Never I won't
Ever I won't
Never

Starts out like magic, some sick religion
That ain't no vulture, that's a fucking pigeon
She's got vultures in her hair
And blood and feathers they are everywhere
You want retreat
They'll be deep
Dig mine, choke and seep
Baby there, there is a room
Full of death and whores and truth
And I am waiting in that room
I am dying in that room
It's all whores, it's all pain
It's all disease man, it's all the same
My little Judas
My little twin
Where you start that's where night begins, she said
"I want it now" she said
"And I want it now" she said
"I want it now" she said,
"And I want it now" she said,
"I want it now" she said,
"I want it now" she said,
"I want it now" she said,
"I want it now"
Now
00:00 / 00:00
Outros vídeos desta música
Repetir
Outros vídeos desta música
Compositor não encontrado.
Colaboração e revisão:
  • Élison Duarte
1.445 exibições
    • ½ Tom
    • A
    • Bb
    • B
    • C
    • Db
    • D
    • Eb
    • E
    • F
    • F#
    • G
    • Ab
  • Adicionar à lista

    0 comentários

    Ver todos os comentários

    Conseguiu tocar?

    1 Tocaram 0 Ainda não

    Grave um vídeo tocando Burn Black e nos envie!

    Entre para oCifra Club PRO

    Tenha acesso a benefícios exclusivos no App e no Site

    • Chega de anúncios

    • Prioridade de compra em lançamentos

    • Mais recursos no app do Afinador

    • Atendimento Prioritário

    • Descontos nos produtos Cifra Club

    • Ajude a produzir mais conteúdo

    00:00 / 00:00

    Cifra Club Pro

    Aproveite o Cifra Club com benefícios exclusivos e sem anúncios
    Cifra Club Pro
    Aproveite o Cifra Club com benefícios exclusivos e sem anúncios
    OK