Cifra Club

Aprenda

Dumb

Hole

Cifra: Principal (violão e guitarra)
Tom: E
verse:
      E5   A           G5     C5
   I'm not like them but i can pretend.
e|---------------------------------------
B|---------------2-----------------------
G|-------------2------------------5-5----
D|-----2-----2------------5-----5--------
A|-----2---0--------------5---3----------
E|-0------------------3-3---0------------


Chorus:
     E  A  G  C
e|---0--0--3--3--|-
B|---0--2--3--5--|-
G|---1--2--4--5--|-
D|---2--2--5--5--|-
A|---2--0--5--3--|-
E|---0-----3-----|-


Bridge: 
     B         C
     skin the sun...
e|------------------------|-
B|------------------------|-
G|---4-4-4-4-/5-5-5-5-----|-
D|---4-4-4-4-/5-5-5-5-----|-
A|---2-2-2-2-/3-3-3-3-----|-
E|------------------------|-
Lyrics:
I'm not like them        
But I can pretend        
The sun is gone
But I have a light       
The day is done        
But I'm having fun
I think I'm dumb        

or maybe just happy
Think I'm just happy                       

my heart is broke
But I have some glue        
help me inhale        
And mend it with you
We'll float around        
And hang out on clouds
Then we'll come down        
And have a hangover... have a hangover              

Skin the sun
Fall asleep        
Wish away        
The soul is cheap
Lesson learned        
Wish me luck        
Soothe the burn
Wake me up 
   
I'm not like them
But I can pretend        
The sun is gone        
But I have a light
The day is done        
But I'm having fun        
I think I'm dumb
Colaboração e revisão:
  • Nayane Davin
3.143 exibições
    • ½ Tom
    • A
    • Bb
    • B
    • C
    • Db
    • D
    • Eb
    • E
    • F
    • F#
    • G
    • Ab
  • Adicionar à lista

    0 comentários

    Mostrar mais comentários

    Conseguiu tocar?

    0 Tocaram 0 Ainda não

    Grave um vídeo tocando Dumb e mande pra gente!

    00:00 / 00:00
    outros vídeos desta música
    repetir qualidade Automático
    Outros vídeos desta música
    00:00 / 00:00
    Automático

    Cifra Club Pro

    Aproveite o Cifra Club com benefícios exclusivos e sem anúncios
    7 dias grátis
    Cifra Club Pro
    Aproveite o Cifra Club com benefícios exclusivos e sem anúncios
    7 dias grátis
    OK