Cifra Club

Impotency

Home Grown

Tab de baixo: Principal
Rick E. Trash  (*)


> = STRUM

INTRO                                                                            x2  
G|--------------|------------------------------------------------|--1st-END-|-2nd--|
D|--------------|-------7--------------7-------------------------|----------|------|
A|-REST-7>------|-4h5---4h5p4--0>--4h5---4h5p4----4h5---4h5p4-0>-|-7>-9>-7>-|-7>---|
E|--------------|------------------------------0>----------------|----------|------|

VERSE
G|---------------------------|
D|---------------------------| x3
A|----7>-5>--------4-7-5-4---|
E|-5>---------5--------------|

G|------------------------------|
D|------------------------------|
A|----7>-5>-REST--7-5-4---------|
E|-5>---------------------------|

VERSE x4

PRE-CHORUS
G|-----------------------------------|
D|----5-3-2--------------------------| x2
A|----------5-5>------7------7>------|
E|-2>------------5555---5555---------|

CHORUS
G|-----------------------------------------------------|
D|-----------------------------------------------------|
A|----7>----5>----7>----5>----7>-9>-5>----7>----5>-----|
E|-5>----2>----5>----2>----5>----------5>----2>--------|

POST-CHORUS 1
G|------------------------|
D|------------------------|
A|--------------7-5-4-----|
E|5-5>-5>-5>--------------|

VERSE x4
PRE-CHORUS x2
CHORUS

POST-CHORUS 2
G|---------------|
D|---------------|
A|---------------|
E|5-5>-5>-5>-----|

BRIDGE
G|--------------------------------------|
D|------------------------------------7-| x9
A|----7-5-4h5p4--------7-5-4h5----------|
E|5-5----------------5-5----------------|

PRE-CHORUS x4

OUTRO
G|--------------------------------------------------------------------------|
D|--------------------------------------------------------------------------|
A|----7>----5>----7>----5>----7>-9>-5>----7>--------5-5-5-------------------|
E|-5>----2>----5>----2>----5>-------------5>----2-2-2-------------------5\0-|


1 
00:00 / 00:00
Outros vídeos desta música
Repetir
Outros vídeos desta música
Composição de John E. Trash
100 exibições

0 comentários

Ver todos os comentários

Entre para oCifra Club PRO

Tenha acesso a benefícios exclusivos no App e no Site

  • Chega de anúncios

  • Prioridade de compra em lançamentos

  • Mais recursos no app do Afinador

  • Atendimento Prioritário

  • Descontos nos produtos Cifra Club

  • Ajude a produzir mais conteúdo

00:00 / 00:00

Cifra Club Pro

Aproveite o Cifra Club com benefícios exclusivos e sem anúncios
Cifra Club Pro
Aproveite o Cifra Club com benefícios exclusivos e sem anúncios
OK