Cifra Club

Aprenda

Crawling In The Dark

Hoobastank

Cifra: Principal (violão e guitarra)
tom: D
(Intro)
palm-mute
e|---------------------------------------
B|---------------------------------------
G|---------------------------------------
D|-------11---12---11-----------------9-- (x3) 
A|-9-9-9----9----9----9-12-9-11-7-7-7---- 
E|--------------------------------------- 
palm-mute
e|---------------------------------
B|---------------------------------
G|---------------------------------
D|-0-0-0-7-0-6-0-9-0-7-0-6-0-------
A|---------------------------7-7-7-
E|---------------------------------

  E/F# E/F# D C# A E     Dsus2  E  Dsus2
e|------------------    ------------------- 
B|------------------    -------------------
G|------------------    -99999-----999-----
D|----------7-6----- x3 -77777-999-777-----
A|---44---4-5-4-7-2-    -55555-777-555-----
E|-0/22-0/2-----5-0-    -------------------
_
(Versos)
palm-mute
e|---------------------------------------
B|---------------------------------------
G|---------------------------------------
D|-------11---12---11-----------------9-- (x2)
A|-9-9-9----9----9----9-12-9-11-7-7-7---- 
E|--------------------------------------- 
palm-mute
e|---------------------------------
B|---------------------------------
G|---------------------------------
D|-0-0-0-7-0-6-0-9-0-7-0-6-0------- (x2)
A|---------------------------7-7-7-
E|---------------------------------


I will dedicate
And sacrifice my every...
Thing for just a second's worth
Of how my story's ending
And I wish I could know
If the directions that I take
And all the choices that I make
Won't end up all for nothing

_
(Refrão)
  E/F# E/F# D C# A E     Dsus2  E
e|------------------    ---------------
B|------------------    ---------------
G|------------------    -99999---------
D|----------7-6----- x3 -77777-99999---
A|---44---4-5-4-7-2-    -55555-77777---
E|-0/22-0/2-----5-0-    ---------------

Show me what it's for
Make me understand it
I've been crawling in the dark
Looking for the answer
Is there something more
Than what I've been handed?
I've been crawling in the dark
Looking for the answer
_

(Verso)
Help me carry on
Assure me it's okay to
Use my heart and not my eyes
To navigate the darkness
Will the ending be
Ever coming suddenly?
Will I ever get to see
The ending to my story?
_
  (Refrão)
_

  (Bridge)
   E/F# E/F# E/F# E/F# E/F# G5
e|-----------------------------------------
B|-----------------------------------------
G|-----------------------------------------
D|-----------------------------------------
A|---4-xx---4-xx---4-xx---4-xx---4-x-5-x-5- x4
E|-0/2-xx-0/2-xx-0/2-xx-0/2-xx-0/2-x-3-x-3-

So when and how will I know?
_

D                     E       F#
How much further do I have to go?
D                           E       A       
And how much longer until I finally know?
D                       E          F#
Cause I'm looking and I just can't see
          A                 E (palm-mute)
What's in front of me... in front of me
_
  (Refrão)
_
  (Final)
  E/F# E/F# D C# A E
e|------------------
B|------------------
G|------------------
D|----------7-6----- x4
A|---44---4-5-4-7-2-
E|-0/22-0/2-----5-0-
_
Composição de Dan Estrin / Douglas Robb
Colaboração e revisão:
  • Thiago Santos
  • Felipe Bonis
16.797 exibições
    • ½ Tom
    • A
    • Bb
    • B
    • C
    • Db
    • D
    • Eb
    • E
    • F
    • F#
    • G
    • Ab
  • Adicionar à lista

    0 comentários

    Ver todos os comentários

    Conseguiu tocar?

    0 Tocaram 1 Ainda não

    Grave um vídeo tocando Crawling In The Dark e nos envie!

    00:00 / 00:00
    Outros vídeos desta música
    Repetir Qualidade Automático
    Outros vídeos desta música
    00:00 / 00:00
    Automático

    Cifra Club Pro

    Aproveite o Cifra Club com benefícios exclusivos e sem anúncios
    Cifra Club Pro
    Aproveite o Cifra Club com benefícios exclusivos e sem anúncios
    OK