Notificações Amigos pendentes

      Hoobastank

      Did You

      815 exibições
      Tom: C
      ALbum: Spiderman 2
      Tuning: Drop D
      
      Verse (Clean) - "Did you say everything you could.."
      
      e|-5------3------1------0-----3-------|
      B|-3(x16)-3(x16)-3(x16)-1-----1-------|
      G|-2------2------2------0(x7)-0(x9)---|
      D|----------------------2-----2-------|
      A|----------------------3-----3-------|
      D|------------------------------------|
      
      
      e|-5------3------1--------------------|
      B|-3(x16)-3(x16)-3(x16)---------------|
      G|-2------2------2------------12------|
      D|----------------------7-----12------|
      A|----------------------7(x7)-10(x9)--|
      D|----------------------7-----10------|
      
      
      Palm-mute single notes.
      
      e|------------------------------------|
      B|---------10-----7---10-----8---8/10-|
      G|---------10-----7---10-----8---8/10-|
      D|-----0---8------5---8------6---6/8--|
      A|---0----------0--------0-0---0------|
      D|-0-----0----0-----0----0-0---0------|
      
      
      Chorus
      
      e|-----------------------------------------|
      B|-----------------------------------------|
      G|-7-----10-----12-----7-----10-----12-----|
      D|-7(x7)-10(x5)-12(x4)-7(x7)-10(x5)-12(x4)-|
      A|-5-----8------10-----5-----8------10-----|
      D|-------8------10-----------8------10-----|
      
      
      e|-----------------------------------------|
      B|-----------------------------------------|
      G|-7-----10-----12-----7-------------------|
      D|-7(x7)-10(x5)-12(x4)-7(x7)-3-----5-------|
      A|-5-----8------10-----5-----3(x5)-5(x4)---|
      D|-------8------10-----------3-----5-------|
      
      
      Bridge
      Palm-mute - "I got a banjo..?"
      
      e|-----------------------------------------|
      B|-----------------------------------------|
      G|-----------------------------------------|
      D|-----0---3-----0---3-0-0-1---1/3---------|
      A|---0---0-----0---0---0-0-1---1/3---------|
      D|-0---------0---------0-0-1---1/3---------|
      
      
      e|-----------------------------------------|
      B|-----------------------------------------|
      G|-----------------------------------------|
      D|-----0---3-----0---3-0-0-1---------------|
      A|---0---0-----0---0---0-0-1---------------|
      D|-0---------0---------0-0-1---------------|
      
      
      e|-------------------------------------------------|
      B|-------------------------------------------------|
      G|-------------------------------------------------|
      D|-0-10-12-0-15-0-10-12-0-15-0-12-13-12-13-15------|
      A|-0-10-12-0-15-0-10-12-0-15-0-12-13-12-13-15-(x2)-|
      D|-0-10-12-0-15-0-10-12-0-15-0-12-13-12-13-15------|
      
      
      Guitar 1
      
      e|------------------------------------------------------------------|
      B|------------------------------------------------------------------|
      G|-7-7-7-7-7-7-7-3-3-3-3-3-5-5-5-5-7-7-7-7-7-7-7-3-3-3-3-3-5-5-5-5--|
      D|-7-7-7-7-7-7-7-3-3-3-3-3-5-5-5-5-7-7-7-7-7-7-7-3-3-3-3-3-5-5-5-5--|
      A|-5-5-5-5-5-5-5-1-1-1-1-1-3-3-3-3-5-5-5-5-5-5-5-1-1-1-1-1-3-3-3-3--|
      D|------------------------------------------------------------------|
      
      
      Guitar 2
      
      e|------------------------------------------------------------------|
      B|------------------------------------------------------------------|
      G|-11-----11-11--10--10-10-5--5-5--11-12-12-10-10-10-10-10-12-12-12-|
      D|-x------x--x---x---x--x--x--x-x--x--x--x--x--x--x--x--x--x--x--x--|
      A|-9------9--9---8---8--8--3--3-3--9--10-10-9--9--8--8--8--10-10-10-|
      D|------------------------------------------------------------------|
      
      
      The chorus/verse repeats itself so you can figure out what to play and when. Enjoy.
      
      
      

      Comentários 0

      140 .
      140 cancelar

      conseguiu tocar?

      covers

      Grave um vídeo tocando Did You e mande pra gente!

      Ex.: http://www.youtube.com/watch?v=0IvSvIwGdwk
      ver covers de outras músicas »
      0:00 / 0:00

      Capítulos

        1 versão de violão dificuldade exibições contribuição e correção
        1 versão de guitarra dificuldade exibições contribuição e correção
        1 versão de cavaco dificuldade exibições contribuição e correção
        1 versão de teclado dificuldade exibições contribuição e correção
        play/pausefechar subir/descer velocidade
        6ª corda E5ª corda A4ª corda D3ª corda G2ª corda B1ª corda E
          acordes
          publicidade
          fechar
          ok