Notificações Amigos pendentes

      Hoobastank

      Finally Awake

      458 exibições
      Tom: A#
      Tabbed by: NickClemett
      Email:
      
      Tuning:Drop D
                                      Repeat 3 Times Then…
      
      e|--------------------------------|-------------------------------------------|
      B|--------------------------------|-------------------------------------------|
      G|--------------------------------|-------------------------------------------|
      D|-0-0---0-0---0-0---0-0----------|-0-0---0-0---0-0---0-0hold-9-slide-1-------|
      A|-0-0---0-0---0-0---0-0----------|-0-0---0-0---0-0---0-0hold-9-slide-1-------|
      D|-0-0---0-0---0-0---0-0----------|-0-0---0-0---0-0---0-0hold-9-slide-1-------|
                              Repeat 4 times, on 4th time just slide up fret board
      
      e|------------------------------------|-------------------------------------------------|
      B|------------------------------------|-------------------------------------------------|
      G|-5/7---7/8---8/10---10/11-(Palm)----|--5/7---7/8---8/10---10/11~~-11/15-15------------|
      D|--------------------------0-0-0-0-0-|-------------------------------------------------|
      A|-3/5-x-5/6-x-6/8--x-8/ 9--0-0-0-0-0-|--3/5-x-5/6-x-6/8--x-8/ 9~~~--9/13-13------------|
      D|-----0-----0------0-------0-0-0-0-0-|------0-----0------0-----------------------------|
      
      
      e|----------------------------------------------------------------------|
      B|----------------------------------------------------------------------|
      G|-7-7-7-7-7-7-7-7-7-7-7-7-7-7-7-7/1111111111111111111111111111111111/--|
      D|----------------------------------------------------------------------|
      A|-5-5-5-5-5-5-5-5-5-5-5-5-5-5-5-5/9-9-9-9-9-9-9-9-9-9-9-9-9-9-9-9-9/---|
      D|----------------------------------------------------------------------|
      
      
      e|---------------------------------------------------------------------------------|
      B|---------------------------------------------------------------------------------|
      G|-5-5-5-5-5-5-5-5-5-5-5-5-5-5-5-5/14-14-14-14-14-14-14/17-17-17/19-19-19-19-19-19-|
      D|---------------------------------------------------------------------------------|
      A|-3-3-3-3-3-3-3-3-3-3-3-3-3-3-3-3/12-12-12-12-12-12-12/15-15-15/17-17-17-17-17-17-|
      D|---------------------------------------------------------------------------------|
      
      
      e|-------------------------------------------------------------------------------------|
      B|-------------------------------------------------------------------------------------|
      G|-------------12-12--------------12-12-12-----------------11-11--------------11-11-11-|
      D|-10h12-10h12--------10h12-10h12--------------10h12-10h12--------10h12-10h12----------|
      A|-------------------------------------------------------------------------------------|
      D|-------------------------------------------------------------------------------------|
      
      
      e|-------------------------------------------------------------------------------------|
      B|-------------------------------------------------------------------------------------|
      G|-------------10-10--------------10-10-10-----------------12-12--------------12-12-12-|
      D|-10h12-10h12--------10h12-10h12--------------10h12-10h12--------10h12-10h12----------|
      A|-------------------------------------------------------------------------------------|
      D|-------------------------------------------------------------------------------------|
      
      
      e|----------------------------------------------------------------------------------------------|
      B|----------------------------------------------------------------------------------------------|
      G|---------------------------------------------------------7-7-7-7-7-7-7-7/11111111/5-5-5-5-5-5-|
      D|--8-8-8-8-8-8-8-8-8-8-8-8-8-8-10-10-10-10-10-10-10-10-10--------------------------------------|
      A|--8-8-8-8-8-8-8-8-8-8-8-8-8-8-10-10-10-10-10-10-10-10-10-5-5-5-5-5-5-5-5/9-9-9-9//3-3-3-3-3-3-|
      D|--8-8-8-8-8-8-8-8-8-8-8-8-8-8-10-10-10-10-10-10-10-10-10--------------------------------------|
      
      
      e|----------------------------------------------------------------------------------------------|
      B|----------------------------------------------------------------------------------------------|
      G|---------------------------------------------------------1414141414141414/17171717/1919191919-|
      D|--8-8-8-8-8-8-8-8-8-8-8-8-8-8-10-10-10-10-10-10-10-10-10--------------------------------------|
      A|--8-8-8-8-8-8-8-8-8-8-8-8-8-8-10-10-10-10-10-10-10-10-10-1212121212121212/15151515/1717171717-|
      D|--8-8-8-8-8-8-8-8-8-8-8-8-8-8-10-10-10-10-10-10-10-10-10--------------------------------------|
      
      
      | /  slide up
      | \  slide down
      | h  hammer-on
      | p  pull-off
      | ~  vibrato
      | +  harmonic
      | x  Mute note
      ===============================================================================
      I would give it a go. Please rate it and comment.
      Will put more up soon if this is any good.
      
      Clemo
        Composição: Hoobastank

        Comentários 0

        140 .
        140 cancelar

        conseguiu tocar?

        covers

        Grave um vídeo tocando Finally Awake e mande pra gente!

        Ex.: http://www.youtube.com/watch?v=0IvSvIwGdwk
        ver covers de outras músicas »
        0:00 / 0:00

        Capítulos

          1 versão de violão dificuldade exibições contribuição e correção
          1 versão de guitarra dificuldade exibições contribuição e correção
          1 versão de cavaco dificuldade exibições contribuição e correção
          1 versão de teclado dificuldade exibições contribuição e correção
          play/pausefechar subir/descer velocidade
          6ª corda E5ª corda A4ª corda D3ª corda G2ª corda B1ª corda E
            acordes
            publicidade
            fechar
            ok