Cifra Club

Running away

Hoobastank

Cifra: Principal (violão e guitarra)
exibições 21.023
Tom: C
Intro.acústica                                                          

e|---------------------------------------------------------------------------------|
B|---------------------------------------------------------------------------------|
G|------------------------------------------------------------------------5-5-5-4--|
D|-10-10-10-10--9-9-9-9--10-10-10-10--9-9-9-9--5-5-5-5--7-7-7-7--3-3-3-3--3-3-3-3--|
A|-7--7--7--7---7-7-7-7--7--7--7--7---7-7-7-7--5-5-5-5--5-5-5-5--3-3-3-3--3-3-3-3--|
E|---------------------------------------------------------------------------------|

Obs: Toque isso no bordão...nao deixe o mi soar... 

Na primeira parte do verso toque apenas o riff da intr.
 
Am                               G 
I don't want you, to give it all up
              F               Am
Live your own life collecting dust
                                       G
and I don't want you to feel sorry for me
              F (deixa soar)    
you never gave us a chance to be

(Nessa parte entra a guitarra com distorção fazendo a sequência em power chords e o violão continua
 fazendo o riff da intr.)


Am
and i don't need you to be by my side
F                       Em
to tell me that everythings is all right
Am 
I just wanted you to tell me the truth
F               Em
You know i do that for you
Refrão
Am  G  C    Dm      F                       C   G  
        So why are you running away?
 Am  G  C    Dm     F           C   G  
        Why are you running away?

    Am
e|-------0-------3-----------------------------------------|
B|----2-------2--------------------------------------------|
G|--2-------2----------------------------------------------|
D|---------------------------------------------------------| 
A|---------------------------------------------------------|
E|---------------------------------------------------------|

oBS: O solo é para ser tocado na Acorde Am.

Am
Cause I did enought to show you that I
F               Em
Was wiling to give and sacrifice
Am
And I was the one who was lifting you up
F                      Em       
When you thought your life had had enought
Am
When I get close, you turn away
F                     Em        
There's nothing that I can do or say
Am
And now I need you, tell me the truth
F           Em  
you know I'd do that for you

REFRÃO

Am                               :
isn't me (isn't me)              :
Am                               :Pré-chours
Isn't you (isn't you)            :
Am                               :      
Nothing that I can do            :

Em           D           F    G 
to make you, change your mind


Pré-Chours(continuar tocando apenas as 4 primeiras cordas)
Am
is it a....waste the time?

entra a guitarra com distorção

Am                                      :
Isn't me, isn't you                     :
Em                                      :Toque normalmente
Nothing that, I can do                  :
Am             Dm      F       G    Am  :       
to make you, change your mind, nooOOO   :       

Refrão
Acordes para:
    Composição: Chris Hesse / Markku LappalainenColaboração e revisão:
    • rafael fidelis
    • NIcolle Laffi
    • Pedro Oliveira

    0 comentários

    mostrar mais comentários

    Conseguiu tocar?

    4tocaram0ainda não

    Grave um vídeo tocando Running away e mande pra gente!

    00:00 / 00:00
    outros vídeos desta música
    repetirqualidadeAutomático
    Outro vídeos desta música
      00:00 / 00:00
      OK