Cifra Club

The Reason

Hoobastank

Cifra: Principal
exibições 608.825
Tom: E
Introdução: E

   E
E|----------------------------------------------------|
B|---7---9-----------7---9-----------7---9------------|
G|-9---------8---9-----------8---9--------------------|
D|----------------------------------------------------|
A|-----7---7---7---7---7---7---7---7---7---7----------|
E|----------------------------------------------------|

E|----------------------------------------------------|
B|---------7---9--------------------------------------|
G|-8---9-----------8----------------------------------|
D|----------------------------------------------------|
A|---7---7---7---7---7--------------------------------|
E|----------------------------------------------------|

Primeira Parte:

   E
E|----------------------------------------------------|
B|-----7---9-----------7---9-----------7---9----------|
G|-9-----------8---9-----------8---9-----------8------|
D|----------------------------------------------------|
A|---7---7---7---7---7---7---7---7---7---7---7---7----|
E|----------------------------------------------------|
                   C#m
E|----------------------------------------------------|
B|-----7---9-----------4---5-----------4---5----------|
G|-9-----------8---6-----------4---6-----------4------|
D|----------------------------------------------------|
A|---7---7---7---7---4---4---4---4---4---4---4---4----|
E|----------------------------------------------------|
                                   E
E|----------------------------------------------------|
B|-----4---5-----------4---5-----------7---9----------|
G|-6-----------4---6-----------4---9-----------8------|
D|----------------------------------------------------|
A|---4---4---4---4---4---4---4---4---7---7---7---7----|
E|----------------------------------------------------|

E|----------------------------------------------------|
B|-----7---9-----------7---9-----------7---9----------|
G|-9-----------8---9-----------8---9-----------8------|
D|----------------------------------------------------|
A|---7---7---7---7---7---7---7---7---7---7---7---7----|
E|----------------------------------------------------|
   C#m
E|----------------------------------------------------|
B|-----4---5-----------4---5-----------4---5----------|
G|-6-----------4---6-----------4---6-----------4------|
D|----------------------------------------------------|
A|---4---4---4---4---4---4---4---4---4---4---4---4----|
E|----------------------------------------------------|
                   A5(9)
E|----------------------------------------------------|
B|-----4---5-----------4---5-----------4---5----------|
G|-6-----------4---6-----------4---6-----------4------|
D|----------------------------------------------------|
A|---4---4---4---4---0---0---0---0---0---0---0---0----|
E|----------------------------------------------------|
                                   B5(9)
E|----------------------------------------------------|
B|-----4---5-----------4---5-----------2---4----------|
G|-6-----------4---6-----------4---4-----------2------|
D|----------------------------------------------------|
A|---0---0---0---0---0---0---0---0---2---2---2---4----|
E|----------------------------------------------------|

E|----------------------------------------------------|
B|-----2---4-----------2---4-----------2---4----------|
G|-4-----------2---4-----------2---4-----------2---2--|
D|----------------------------------------------------|
A|---2---2---2---2---2---2---2---2---2---2---2---2----|
E|----------------------------------------------------|

E                    C#m
  I'm not a perfect person
                                       E
There's many things I wish I didn't do
                 C#m
But I continue learning
                                     A5(9)
I never meant to do those things to you
                                B5(9)  (Riff 1)
And so, I have to say before I go

(Riff 1)

E|-11-12-11-12-11-12-11-12-11-12-11-12-11-12-11-12----|
B|----------------------------------------------------|
G|----------------------------------------------------|  (2x)
D|----------------------------------------------------|
A|----------------------------------------------------|
E|----------------------------------------------------|


Primeiro Refrão:

(Guitarra 2)

   E5/B    C#5/G#  A5         B5/F#
E|-12------16------17----16---14----------------------|
B|----------------------------------------------------|
G|----------------------------------------------------|
D|----------------------------------------------------|
A|----------------------------------------------------|
E|----------------------------------------------------|

                          E5/B
That I just want you to know
                             C#5/G#
I've found out a reason for me
                         A5
To change who I used to be
                        B5/F#
A reason to start over new
                   E
And the reason is you


Segunda Parte:

                  C#m
I'm sorry that I hurt you
                                         E
It's something I must live with everyday
                           C#m
And all the pain I put you     through
                                     A5(9)
I wish that I could take it all away
                                     B5(9)  (Riff 1)
And be the one who catches all your tears


Segundo Refrão:

(Guitarra 2)

   E5/B    C#5/G#  A5         B5/F#
E|-12------16------17----16---14----------------------|
B|----------------------------------------------------|
G|----------------------------------------------------|
D|----------------------------------------------------|
A|----------------------------------------------------|
E|----------------------------------------------------|
   D5/A    E5      D5/A    E5
E|-12------16------17------16-------------------------|
B|----------------------------------------------------|
G|----------------------------------------------------|
D|----------------------------------------------------|
A|----------------------------------------------------|
E|----------------------------------------------------|

                          E5/B
That's why I need you to hear
                             C#5/G#
I've found out a reason for me
                         A5
To change who I used to be
                        B5/F#
A reason to start over new
                   D5/A
And the reason is you
                   E5
And the reason is you
                   D5/A
And the reason is you
                   E5
And the reason is you


Terceira Parte:

   E
E|----------------------------------------------------|
B|-----7---9-----------7---9-----------7---9----------|
G|-9-----------8---9-----------8---9-----------8------|
D|----------------------------------------------------|
A|---7---7---7---7---7---7---7---7---7---7---7---7----|
E|----------------------------------------------------|
                   C#m
E|----------------------------------------------------|
B|-----7---9-----------4---5-----------4---5----------|
G|-9-----------8---6-----------4---6-----------4------|
D|----------------------------------------------------|
A|---7---7---7---7---4---4---4---4---4---4---4---4----|
E|----------------------------------------------------|
                                   A5(9)
E|----------------------------------------------------|
B|-----4---5-----------4---5-----------4---5----------|
G|-6-----------4---6-----------4---6-----------4------|
D|----------------------------------------------------|
A|---4---4---4---4---4---4---4---4---0---0---0---0----|
E|----------------------------------------------------|

E|----------------------------------------------------|
B|-----4---5-----------4---5-----------4---5----------|
G|-6-----------4---6-----------4---6-----------4------|
D|----------------------------------------------------|
A|---0---0---0---0---0---0---0---0---0---0---0---0----|
E|----------------------------------------------------|
   B5(9)
E|----------------------------------------------------|
B|-----2---4-----------2---4-----------2---4----------|
G|-4-----------2---4-----------2---4-----------2------|
D|----------------------------------------------------|
A|---2---2---2---2---2---2---2---2---2---2---2---2----|
E|----------------------------------------------------|

E|----------------------------------------------------|
B|-----2---4------------------------------------------|
G|-4-----------2---2----------------------------------|
D|----------------------------------------------------|
A|---2---2---2---2------------------------------------|
E|----------------------------------------------------|

E                    C#m
  I'm not a perfect person
                                     A5
I never meant to do those things to you
                               B5(9)  (Riff 1)
And so I have to say before I go


Terceiro Refrão:

                          E5/B
That I just want you to know
                             C#5/G#
I've found out a reason for me
                         A5
To change who I used to be
                        B5/F#
A reason to start over new
                   E5/B
And the reason is you

                             C#5/G#
I've found out a reason to show
                          A5
A side of me you didn't know
                         B5/F#
A reason for all that I do
                   E5/B
And the reason is you
Acordes para:

    0 comentários

      mostrar mais comentários

      Conseguiu tocar?

      71tocaram2ainda não

      Grave um vídeo tocando The Reason e mande pra gente!

      00:00 / 00:00
      outros vídeos desta música
      repetirqualidadeautomática
      Outro vídeos desta música
        00:00 / 00:00
        automática
        Capítulos
        • Início
        • Tocando a Música
        • Tocando Introdução
        • Ensinando Introdução
        • Tocando Primeira Parte
        • Ensinando Primeira Parte
        • Acordes do Refrão
        • Tocando Refrão
        • Ensinando o Ritmo do Refrão
        • Ensinando Guitarra Solo Refrão
        • Tocando Segunda Parte
        • Acordes Segundo Refrão
        • Tocando Segundo Refrão
        • Ensinando Ritmo Segundo Refrão
        • Ensinando Guitarra Solo Segundo Refrão
        • Tocando Final
        • Encerramento
        OK