Cifra Club

Só Você

Hori

Cifra: Principal
exibições 300.038
Tom: C
(intro 2x)    Am G F7M

Am       G           F7M
demorei muito pra te encontrar
  Am           G    F7M
agora eu quero só você
    Am     G      F7M
teu jeito todo especial de ser
   Am    G         F7M
eu fico louco com voce
      C    G      Am               F
Te abraço e sinto coisas que eu não sei dizer
     C    G     Am    F
Só sinto com você
C         G     Am          F
Meu pensamento voa  de encontro ao teu
 C          G     Am     F
Será que é sonho meu?

(refrão)
Am           G           F7M
   Tava cansado de me preocupar
   Am         G     F7M   Am
quantas vezes eu dancei
            G         F7M
E tantas vezes que eu só fiquei
Am    G        F7M
    chorei, chorei

C          G       Am          F7M
Agora eu quero ir fundo lá na emoção
  C        G    Am      F7M
Mexer teu coração
  C      G    Am        F7M
Salta comigo alto e todo mundo vê
     C        G  Am        Fadd9
que eu quero só você
                 C/E   Fadd9      G4   Fadd9    C/E   Fadd9           G4   Fadd9    G
Eu quero             só você                               só você

(solo)

E|------15-------------------------------15----------------------------------------
B|--15-------12-12-13-13--13/15----------12-12--13----15b17r15b17r15b17r15b17r15---
G|---------------------------------------------------------------------------------
D|---------------------------------------------------------------------------------
A|---------------------------------------------------------------------------------
E|---------------------------------------------------------------------------------


E|-7p5-------5---------------------------------------------------------8--------8---10-10b12-10-8------------
B|--------5--------------------------------------8-------8~-10-10~-------10----------------------------------
G|---------------7---7b9r7p5-----5------7/9-------9----------------------------------------------------5h7-5-
D|-----------------------------7-----------------------------------------------------------------------------
A|-----------------------------------------------------------------------------------------------------------
E|-----------------------------------------------------------------------------------------------------------


        C    G     Am               F
Te abraço e sinto coisas que eu não sei dizer
  C       G      Am     F
Só sinto com você
C        G      Am        F
Meu pensamento vôa de encontro ao teu
  C          G                 Am        F
 Será que é sonho meu

(repete a)

C            G        Am           F
Agora eu quero ir fundo lá na emoção
C          G           Am       F
Mexer teu coração
C         G      Am          F
Salta comigo alto e todo mundo vê
C             G             Am      F
Que eu quero só você    (2x)

   C/E  Fadd9              G4                    Fadd9          C/E
Só você--ê  Eu quero só     você--ê
Fadd9               G4                 Fadd9
só você--ê  eu quero só   você...
Acordes para:
    Composição: Vinicius CantuáriaColaboração e revisão:
    • diogo ristow
    • Felipe Brunken
    • lucas

    0 comentários

      mostrar mais comentários

      Conseguiu tocar?

      12tocaram0ainda não

      Grave um vídeo tocando Só Você e mande pra gente!

      00:00 / 00:00
      outros vídeos desta música
      repetirqualidadeautomática
      Outro vídeos desta música
        00:00 / 00:00
        automática
        Capítulos
        • Início
        • Acordes da introdução e da primeira parte
        • Tocando a introdução e a primeira parte
        • Ensinando o rítmo da música devagar
        • Acordes da segunda parte
        • Tocando segunda parte
        • Tocando passagem no fim da segunda parte
        • Ensinando rítmo da segunda parte devagar
        • Encerramento
        OK