Cifra Club

Howlin For My Darling

Howlin' Wolf

Cifra: Principal (violão e guitarra)
Selo Cifra Club: esta cifra foi revisada para atender aos critérios oficiais da nossa Equipe de Qualidade.
tom: G
E|E|-------------------------------------------------------------------------------||
                       HOWLIN' FOR MY DARLING - Howlin' Wolf
E|E|-------------------------------------------------------------------------------||

Tabbed by: The13Bastards

Tuning: EADGBe

Okay, I couldn't find this tab anywhere online so I worked it out (I think), and it
seems to match up with the song itself. This guitar part mirrors the rhythm, which I 
think is actually played on piano. Hope you have fun with it, and if anyone knows the little
noodle-y lead bits over the top then please comment! The notes in brackets/parentheses are
the bass-line that runs between the riffs.


INTRO:
     G
E|--------------------------------------------|
B|-------12-12-12-12-12-----------------------|
G|-------12-12-12-12-12-----------------------|
D|-------12-12-12-12-12--10--5----------------|
A|-(10)--10-10-10-10-10--10--5--(5)-(8)-(10)--|
E|--------------------------------------------| x4

    C
E|--------------------------------------------|
B|-------5-5-5-5-5----------------------------|
G|-------5-5-5-5-5----------------------------|
D|-------5-5-5-5-5--3-------------------------|
A|-(3)---3-3-3-3-3--3--3----------(3)---------|
E|---------------------3--(3)-(6)-------------| x2

    G
E|--------------------------------------------|
B|-------12-12-12-12-12-----------------------|
G|-------12-12-12-12-12-----------------------|
D|-------12-12-12-12-12--10--5----------------|
A|-(10)--10-10-10-10-10--10--5--(5)-(8)-(10)--|
E|--------------------------------------------| x2


CHORUS:
   D (If you hear me howlin'!)    C   (Callin' on my darling!)
E|-------------------------------------------------------------|
B|-----7-7-7-7-7----------------------5-5-5-5-5----------------|
G|-----7-7-7-7-7----------------------5-5-5-5-5----------------|
D|-----7-7-7-7-7--5-------------------5-5-5-5-5--3-------------|
A|-----5-5-5-5-5--5--5----------------3-3-3-3-3--3--3----------|
E|-------------------5------------------------------3----------|

   G   (Ooooooooh! Oooooooh!)
E|----------------------------------|
B|-----12-12-12-12-12---------------|
G|-----12-12-12-12-12---------------|
D|-----12-12-12-12-12--10--5--------|
A|-----10-10-10-10-10--10--5---(x2)-|
E|----------------------------------|
Outros vídeos desta música
    2 exibições
      • ½ Tom
      • A
      • Bb
      • B
      • C
      • Db
      • D
      • Eb
      • E
      • F
      • F#
      • G
      • Ab
    • Adicionar à lista

    Afinação da cifra

    Afinador online

      0 comentários

      Ver todos os comentários

      Entre para o Cifra Club PRO

      Tenha acesso a benefícios exclusivos no App e no Site

      • Chega de anúncios

      • Badges exclusivas

      • Mais recursos no app do Afinador

      • Atendimento Prioritário

      • Aumente seu limite de lista

      • Ajude a produzir mais conteúdo

      Cifra Club Pro

      Aproveite o Cifra Club com benefícios exclusivos e sem anúncios
      Cifra Club Pro
      Aproveite o Cifra Club com benefícios exclusivos e sem anúncios
      Ops (: Contenido disponible sólo en portugués.
      OK