Notificações Amigos pendentes

      Hugo Pena e Gabriel

      Do Brasil a Argentina

      29.001 exibições
      Tom: G
      Intro: G5  D/G  Em7/G  D/G
      
      
      E|--3p2--2-2/3--3---------8p7---7--8/10-10h12p10-7/8/10--|
      B|-----3---3/5--5-------------8---10/12----------8/10/12-|
      G|-------------------------------------------------------|
      D|-------------------------------------------------------|
      A|----------------0-2-3-3--------------------------------|
      E|-------------------------------------------------------|
      
      
      E|--3p2--2-2/3--3----------------8p7--------------------7-7---------------|
      B|------3--3/5--5--------------------8-8/10-8-8----------------------8----|
      G|----------------------------------------------------5/7-------5/7-------|
      D|------------------------------------------------------------------------|
      A|------------------0-2-3-3-----------------------------------------------|
      E|------------------------------------------------------------------------|
      
      
      Riff:
      
      E|-3-5-7-7-5-3--|
      B|-3-5-7-7-5-3--|
      
      
            G
      Já comprei o passaporte dos meus sonhos
                             C/G                  G
      No primeiro avião eu vôou  pra buscar, meu amor
      
      Ela mora na província de Santa Fé,
                                            C/G
      E Rosário me espera aí se Deus quiser hoje  mesmo eu vou
           G
      pra Argentina
      
      Pré-refrão:
      
           Am                      C/G                   G
      Já no puedo más vivir quedar me un dia sin sentir tu calor
        Am                            C/G                      G     G7
      De piensar me vuelvo loco de envolver-me En tus bejos deliciosos
      
      Refrão:
      
      C             D              G            Em
      Eu não fico nem um minuto mais nesse país
           C              D                    G     G7
      Vou  buscar alguém, alguém pra me fazer feliz
      C             D         G           Em
      No primeiro avião hoje mesmo vou viajar
                       C/G     D7        G
      Eu vou pra Argentina, tô indo te buscar
          G
      Ela mora na província de Santa Fé
                                     C/G
      E Rosário me espera e se Deus quiser hoje  mesmo eu vou
              G
      pra Argentina
      
      (Repete)
        Composição: AiroColaboração e revisão:
        • pauloricardorsx
        • tonyviola47
        • clemente rodrigues de sousa
        • Fernando

        Comentários 2

        140 .
        140 cancelar

        conseguiu tocar?

        covers

        Grave um vídeo tocando Do Brasil a Argentina e mande pra gente!

        Ex.: http://www.youtube.com/watch?v=0IvSvIwGdwk
        ver covers de outras músicas »
        0:00 / 0:00

        Capítulos

          1 versão de violão dificuldade exibições contribuição e correção
          1 versão de guitarra dificuldade exibições contribuição e correção
          1 versão de cavaco dificuldade exibições contribuição e correção
          1 versão de teclado dificuldade exibições contribuição e correção
          play/pausefechar subir/descer velocidade
          6ª corda E5ª corda A4ª corda D3ª corda G2ª corda B1ª corda E
            acordes
            publicidade
            fechar
            ok