Cifra Club

Do Brasil a Argentina

Hugo Pena e Gabriel

Cifra: Principal
exibições 32.386
Tom: G
Intro: G5  D/G  Em7/G  D/G

E|--3p2--2-2/3--3---------8p7---7--8/10-10h12p10-7/8/10--|
B|-----3---3/5--5-------------8---10/12----------8/10/12-|
G|-------------------------------------------------------|
D|-------------------------------------------------------|
A|----------------0-2-3-3--------------------------------|
E|-------------------------------------------------------|

E|--3p2--2-2/3--3----------------8p7--------------------7-7---------------|
B|------3--3/5--5--------------------8-8/10-8-8----------------------8----|
G|----------------------------------------------------5/7-------5/7-------|
D|------------------------------------------------------------------------|
A|------------------0-2-3-3-----------------------------------------------|
E|------------------------------------------------------------------------|

Riff:
E|-3-5-7-7-5-3--|
B|-3-5-7-7-5-3--|

      G
Já comprei o passaporte dos meus sonhos
                       C/G                  G
No primeiro avião eu vôou  pra buscar, meu amor

Ela mora na província de Santa Fé,
                                      C/G
E Rosário me espera aí se Deus quiser hoje  mesmo eu vou
     G
pra Argentina

Pré-refrão:

     Am                      C/G                   G
Já no puedo más vivir quedar me un dia sin sentir tu calor
  Am                            C/G                      G     G7
De piensar me vuelvo loco de envolver-me En tus bejos deliciosos

Refrão:

C             D              G            Em
Eu não fico nem um minuto mais nesse país
     C              D                    G     G7
Vou  buscar alguém, alguém pra me fazer feliz
C             D         G           Em
No primeiro avião hoje mesmo vou viajar
                 C/G     D7        G
Eu vou pra Argentina, tô indo te buscar
    G
Ela mora na província de Santa Fé
                               C/G
E Rosário me espera e se Deus quiser hoje  mesmo eu vou
        G
pra Argentina

(Repete)
Acordes para:
    Colaboração e revisão:

    0 comentários

      mostrar mais comentários

      Conseguiu tocar?

      3tocaram0ainda não

      Grave um vídeo tocando Do Brasil a Argentina e mande pra gente!

      00:00 / 00:00
      outros vídeos desta música
      repetirqualidadeautomática
      Outro vídeos desta música
        00:00 / 00:00
        automática
        OK