Cifra Club

Long Flight

Human Tetris

Cifra: Principal (violão e guitarra)
Selo Cifra Club: esta cifra foi revisada para atender aos critérios oficiais da nossa Equipe de Qualidade.
tom: D
[Main riff]
E|---------------------7---7-7-7-7-|
B|---------------------7---7-7-7-7-|
G|-7-6-----------------7---7-7-7-7-|
D|-----7--9--------7---------------|
A|----------9--7-9-----------------| x2
E|---------------------------------|

E|-------------------------------------------------------|
B|--------------------------------7----------------------|
G|---6-7-6---6-7--6---6-7-6---6-7---6---7-6----7-6---4---|
D|-4-------4--------4-------4---------------7------7-----| x2
A|-------------------------------------------------------|
E|-------------------------------------------------------|


[Verse]

E|--7------|
B|--7------|
G|--7------|
D|---------| Strum this chord for whole verse.
A|---------|
E|---------|


[Chorus]   x2

E|---------------------------------------------------------------------|
B|--5-5/-7-7-7-7-7-7-7-------------------------------------------------|
G|---------------------7-7-7-7-7-7-7\-4-4-4-4-4-4/-7-7-7-7-------------|
D|---------------------------------------------------------7-7-7-7-7---|
A|---------------------------------------------------------------------|
E|---------------------------------------------------------------------|

E|----------------------------------------------------------------------|
B|--5-5/-7-7-7-7-7-7-7--------------------------------------------------|
G|---------------------7-7-7-7-7-7-7\-4-4-4-4-4-4/-7-7-7-7-----7---7----|
D|---------------------------------------------------------7-7---7---7--|
A|----------------------------------------------------------------------|
E|----------------------------------------------------------------------|

[Main riff]
E|---------------------7---7-7-7-7-|
B|---------------------7---7-7-7-7-|
G|-7-6-----------------7---7-7-7-7-|
D|-----7--9--------7---------------|
A|----------9--7-9-----------------| x2
E|---------------------------------|

[Verse]
E|--7------|
B|--7------|
G|--7------|
D|---------| Strum this chord for whole verse.
A|---------|
E|---------|


[Chorus]   x2

E|---------------------------------------------------------------------|
B|--5-5/-7-7-7-7-7-7-7-------------------------------------------------|
G|---------------------7-7-7-7-7-7-7\-4-4-4-4-4-4/-7-7-7-7-------------|
D|---------------------------------------------------------7-7-7-7-7---|
A|---------------------------------------------------------------------|
E|---------------------------------------------------------------------|

E|----------------------------------------------------------------------|
B|--5-5/-7-7-7-7-7-7-7--------------------------------------------------|
G|---------------------7-7-7-7-7-7-7\-4-4-4-4-4-4/-7-7-7-7-----7---7----|
D|---------------------------------------------------------7-7---7---7--|
A|----------------------------------------------------------------------|
E|----------------------------------------------------------------------|


[Bridge]

E|--7---7-7--|
B|--7---7-7--|
G|--7---7-7--|
D|-----------| x4
A|-----------|
E|-----------|

[Outro]

E|---------------------------------|
B|--12----------15-15--------------|
G|-----11-12-11-------14-14-14-14--|
D|---------------------------------| x3
A|---------------------------------|
E|---------------------------------|
                                                           }X2
E|---------------------------------|
B|---------------------------------|
G|--11-11-11-11-12-12-14-14-14-14--|
D|---------------------------------|
A|---------------------------------|
E|---------------------------------|

E|-------------------------------|
B|-------------------------------|
G|-11--12-11-12-11--14-14-14-14--|
D|-------------------------------|
A|-------------------------------| x3
E|-------------------------------|
                                                           }X2
E|------------------------|
B|------------------------|
G|--12-11-11-9-9-11-11-9--|
D|------------------------|
A|------------------------|
E|------------------------|
Outros vídeos desta música
    69 exibições
      • ½ Tom
      • A
      • Bb
      • B
      • C
      • Db
      • D
      • Eb
      • E
      • F
      • F#
      • G
      • Ab
    • Adicionar à lista

    Afinação da cifra

    Afinador online

      0 comentários

      Ver todos os comentários

      Entre para o Cifra Club PRO

      Tenha acesso a benefícios exclusivos no App e no Site

      • Chega de anúncios

      • Mais recursos no app do Afinador

      • Atendimento Prioritário

      • Aumente seu limite de lista

      • Ajude a produzir mais conteúdo

      Cifra Club Pro

      Aproveite o Cifra Club com benefícios exclusivos e sem anúncios
      Cifra Club Pro
      Aproveite o Cifra Club com benefícios exclusivos e sem anúncios
      OK