Cifra Club

Nosso Deus É Poderoso

IAdore

Cifra: Principal
exibições 34.497
Tom: B
Intro 4x: B  F#  G#m  E

Solo

E|--------------------------------------11-12-12p11----|
B|-12-12-12....--14p12-12--14p12-12-12-----------------|
G|-----------------------------------------------------|
D|-----------------------------------------------------|
A|-----------------------------------------------------|
E|-----------------------------------------------------|

E|-----------------------------------------------------|
B|-14p12-12--14p12-12-12-----------12------------------|
G|------------------------11h13-13---------------------|
D|-----------------------------------------------------|
A|-----------------------------------------------------|
E|-----------------------------------------------------|

     B
Poderoso
       F#
Nunca falhará
G#m           E
Maravilhoso Deus
             B
Mais que busca_mos
            F#
Mais que pedi_mos
G#m    E        F#
Grandes coisas faz

Refrão:
      B                F#
Ressurgiu e a morte venceu
      G#m          E
Nosso Deus é poderoso
       B/D#         F#
Em Seu nome vamos vencer
      G#m    F#    E
Nosso Deus é poderoso

( B  F#  G#m  E )

    B
Deus conosco
     F#
Sempre perto está
G#m          E
Dando a solução
             B
Mais que sabe_mos
              F#
Mais que espera_mos
G#m     E       F#
Grandes coisas faz

Solo: B/D# F# G#m F# E


E|---14--14--14--14--14------12--12----11-----9--9--9--9----6--6----7--7---|
B|---x---x---x---x---x-------x---x-----x------x--x--x--x----x--x----x--x---|
G|---11--11--11--11--11------9---9-----8------6--6--6--6----3--3----4--4---|
D|-------------------------------------------------------------------------|
A|-------------------------------------------------------------------------|
E|-------------------------------------------------------------------------|

 

E|---14--14--14--14----11--11----9----12--12--12--12--12--12--12--12-------|
B|---x---x---x---x-----x---x-----x----x---x---x---x---x---x---x---x--------|
G|---11--11--11--11----8---8-----6----9---9---9---9---9---9---9---9--------|
D|-------------------------------------------------------------------------|
A|-------------------------------------------------------------------------|
E|-------------------------------------------------------------------------|



       B/D#
Deus conosco
       F#
Nos conduzirá
            G#m
Jamais nos deixa
F          E
Jamais nos deixa
       B/D#
Deus por nós_
       F#
Quer nos abraçar
           G#m
Ele nunca falha
F         E
Ele nunca falha
Acordes para:
    Colaboração e revisão:
    • Andrey Gutnik
    • César Augusto
    • Renato Rocha

    0 comentários

      mostrar mais comentários

      Conseguiu tocar?

      5tocaram0ainda não

      Grave um vídeo tocando Nosso Deus É Poderoso e mande pra gente!

      00:00 / 00:00
      outros vídeos desta música
      repetirqualidadeautomática
      Outro vídeos desta música
        00:00 / 00:00
        automática
        OK