Cifra Club

Babasonicos

Ian Brown

Cifra: Principal (violão e guitarra)
tom: D
E|--------------------|-----------------|
B|--------------------|-----------------|
G|--------------------|-----------------|
D|----------------7/9-|-7---------------|
A|--------------7-----|---7---6-5--3----|
E|-/5--5/7--7/8-------|-----8--------1--|

E|-----------------|
B|-----------------|
G|-5-7-8-7-5-4-----|
D|-----------------|
A|-----------------|
E|-----------------|

E|-----------------|-----------------------|
B|-----------------|-----------------------|
G|-14b-14b 14b 14b-|-12-12h14--------------|
D|-----------------|----------12--12h13h14-|
A|-----------------|-----------------------|
E|-----------------|-----------------------|

E|-------------------|--------------------------------------|
B|-------------------|--------------------------------------|
G|-12-12h14----------|-14b-14b 14b 14b---12-12h14-----------|
D|----------12h13h14-|----------------------------12h13h14--|
A|-------------------|--------------------------------------|
E|-------------------|--------------------------------------|

E|--------------------------------------|
B|--------------------------------------|
G|-14b-14b 14b 14b---12-12h14-----------|
D|----------------------------12h13h14--|
A|--------------------------------------|
E|--------------------------------------|

E|--------------------------------------------|
B|--------------------------------------------|
G|-14b-14b 14b 14b---12-12h14-14b-------------|
D|--------------------------------------------|
A|--------------------------------------------|
E|--------------------------------------------|

E|--------------------------------------|
B|--------------------------------------|
G|-14b-14b 14b 14b---12-12h14-----------|
D|----------------------------12h13h14--|
A|--------------------------------------|
E|--------------------------------------|

00:00 / 00:00
Outros vídeos desta música
Repetir
Outros vídeos desta música
Composição de Walter Kebleris
Colaboração e revisão:
  • Jefferson Sousa
112 exibições
    • ½ Tom
    • A
    • Bb
    • B
    • C
    • Db
    • D
    • Eb
    • E
    • F
    • F#
    • G
    • Ab
  • Adicionar à lista

    0 comentários

    Ver todos os comentários
    00:00 / 00:00

    Cifra Club Pro

    Aproveite o Cifra Club com benefícios exclusivos e sem anúncios
    Cifra Club Pro
    Aproveite o Cifra Club com benefícios exclusivos e sem anúncios
    OK