Cifra Club

Aprenda

1776

Iced Earth

Cifra: Principal (violão e guitarra)
tom: F#
It is a very nice instrumental

tr=trill (rapid alternation between notes)

eb|-------------------------------------------|
Bb|-------------------------------------------|
Gb|-------------------------------------------|
Db|-----------9----------9--------------------|
Ab|-----------7----------7--10--9-10-9-7--5---|
Eb|---0--000-----0--000---------______--------|

eb|-------------------------------------------| 
Bb|-------------------------------------------| 
Gb|-------------------------------------------| 
Db|-----------9----------9--<9---7--9-7-5--4>-|<2nd guitar 
Ab|-----------7----------7--10---9-10-9-7--5--|
Eb|---0--000-----0--000-----------------------|

eb|-------------------------------------------------------| 
Bb|-------------------------------------------------------| 
Gb|-------------------------------------------------------|Repeat
Db|-----------9----------9--<9---7--9-7-5--4>-------------|with 2nd 
Ab|-----------7----------7---10--9-10-9-7--5---3--2-------|guitar in 
Eb|---0--000-----0--000-----------------------------3--2--|1stmeasure 

Eb|---0-000-0-0-0-|---0-000-0-0-0-|---0-000-0-0-0-|---0-000-0-0-0-|

eb|-------------------------------------------| 
Bb|-------------------------------------------| 
Gb|-------------------------------------------| 
Db|---9---7---5---7--4--4-5-4-----4-----------| 4x
Ab|---------------------------7-----7-5-7-----|
Eb|-------------------------------------------|

Solo 1
eb|-----------------------------------------------------|
Bb|-----------17--16-17s20--19tr20--17-17-19--17--------|
Gb|--------16-------------------------------------------|
Db|---14------------------------------------------------|
Ab|-----------------------------------------------------|
Eb|-----------------------------------------------------|

eb|---17--15--15-17-15-14-------------------------|
Bb|-----------------------15---15sl20-20-20-------|
Gb|-----------------------------------------------|
Db|------------------------------------------------|
Ab|-----------------------------------------------|
Eb|-----------------------------------------------|

eb|----------------17-----------------------------|
Bb|--20--20--19-20----20-19-19sl17-17-17-17-------|
Gb|-----------------------------------------------|
Db|-----------------------------------------------|
Ab|-----------------------------------------------|
Eb|-----------------------------------------------|

eb|---17--------17--------------------------------|
Bb|------20---20--20-19--19sl15-15--15-15---------|
Gb|-----------------------------------------------|
Db|-----------------------------------------------|
Ab|-----------------------------------------------|
Eb|-----------------------------------------------|

eb|-------------------------------------------------|
Bb|---13---13-15-13-12---12sl20-20-20---------------|
Gb|-----------------------------------16------------|
Db|-------------------------------------------------|
Ab|-------------------------------------------------|
Eb|-------------------------------------------------|

eb|----------------------17-15--15tr17--14-15-14-12-|
Bb|---20--20-19-17-19-20----------------------------|
Gb|-------------------------------------------------|
Db|-------------------------------------------------|
Ab|-------------------------------------------------|
Eb|-------------------------------------------------|

Then play the whole thing from the beginning until the solo 
For the last to measures also add

eb|-------------------------------------------|
Bb|---10b12--10--8--10--7--7-8-7----7---------|
Gb|------------------------------9----9-7-9---|

The last solo which is performed by flute 
eb|---19-15----------19-19-15---------19--- 
Bb|---------17----17---------17----17------
Gb|------------16---------------16---------

eb|---19-20-19-17-19-17-15-17-15-14-15-14--|
Bb|---________-________-________-________--| 3x
Gb|----------------------------------------|

eb|---12-14-12-10-12-10-8-10-8-7-8-7-|
Bb|---________-________-______-_____-|
Colaboração e revisão:
  • Junior Jr
1.620 exibições
    • ½ Tom
    • A
    • Bb
    • B
    • C
    • Db
    • D
    • Eb
    • E
    • F
    • F#
    • G
    • Ab
  • Adicionar à lista

    0 comentários

    Ver todos os comentários
    00:00 / 00:00
    outros vídeos desta música
    repetir qualidade Automático
    Outros vídeos desta música
    00:00 / 00:00
    Automático

    Cifra Club Pro

    Aproveite o Cifra Club com benefícios exclusivos e sem anúncios
    Cifra Club Pro
    Aproveite o Cifra Club com benefícios exclusivos e sem anúncios
    OK