Cifra Club

Aprenda

Angel's Holocaust

Iced Earth

Cifra: Principal (violão e guitarra)
tom: C
Tunning:Eb 

-------0-------------0-------------0-------------0---------------------------- 
---------0-------------0-------------0-------------0----------0--------------- 
-----------0-------------0-------------0-------------0-------0--0------------- 
-----4-------4-----4-------4-----4-------4-----4-------4---2------2------0--0- 
----2------------2-------------2-------------2-----------3---------3---2---0-- 
--0------------0-------------0-------------0-------------------------3---2---- 
                                                                               

------------------------------------------------------------------------------ 
------------------------------------------------------------------------------ 
------------------------------------------------------------------------------ 
--999999999999999999991010-999999999999999999999-7-7-------------------------- 
--77777777777777777777-8-8-777777777777777777777-5-5-------------------------- 
------------------------------------------------------------------------------ 
                                                                               

------------------------------------------------------------------------------ 
------------------------------------------------------------------------------ 
------------------------------------------------------------------------------ 
--999999999999999999999------9999999999999999999999--------------------------- 
--777777777777777777777--5-5-7777777777777777777777-3-3----------------------- 
-------------------------3-3------------------------1-1----------------------- 
                                                                               

------------------------------------------------------------------------------ 
------------------------------------------------------------------------------ 
------------------------------------------------------------------------------ 
--7---7-9-7------999999999999999999999---7-7-9-7------------------------------ 
--5---5-7-5-8-7--777777777777777777777---5-5-7-5-8-7-------------------------- 
------------6-5----------------------------------6-5------------0000000000000- 
                                                                               

------------------------------------------------------------------------------ 
------------------------------------------------------------------------------ 
------------------------------------------------------------------------------ 
--------------------------7-7-9-7--------------------------------------------- 
--------------------------5-5-7-5-8-7----77777777777777777777777777777777777-- 
-000000000000000000000000---------6-5----------------------------------------- 
                                                                               

------------------------------------------------------------------------------ 
------------------------------------------------------------------------------ 
------------------------------------------------------------------------------ 
------------------------------------------------------------------------------ 
-87777777777777777877777777777777787777777777777777--------------------------- 
------------------------------------------------------------------------------ 
                                                                               

------------------------------------------------------------------------------ 
------------------------------------------------------------------------------ 
------------------------------------------------------------------------------ 
------------------------------------------------------------------------------ 
-9888888888888889888888888888898888888888888889-8777777777778777777787777777-- 
------------------------------------------------------------------------------ 
  solo rythem                                                                  

------------------------------------------------------------------------------ 
------------------------------------------------------------------------------ 
------------------------------------------------------------------------------ 
----9-------7-9-9------79----------------------------------------------------- 
----7-77777-5-777-7777-57-8-787-5-----2--------------------------------------- 
--------------------------6-565-3-3-2-0--------------------------------------- 
  this riff is at the beginning.forgot to put itwere it belongs                

------------------------------------------------------------------------------ 
------------------------------------------------------------------------------ 
------------------------------------------------------------------------------ 
-------------------------------------5-----------555555----------------------- 
-44-444-----------44-444----------4--3-333333-4--3333333---------------------- 
-220222-222222----220222-2222222--2-----------2------------------------------- 
                                                                               
Composição de Jon Schaffer
3.894 exibições
    • ½ Tom
    • A
    • Bb
    • B
    • C
    • Db
    • D
    • Eb
    • E
    • F
    • F#
    • G
    • Ab
  • Adicionar à lista

    0 comentários

    Ver todos os comentários

    Conseguiu tocar?

    0 Tocaram 0 Ainda não

    Grave um vídeo tocando Angel's Holocaust e nos envie!

    00:00 / 00:00
    outros vídeos desta música
    repetir qualidade Automático
    Outros vídeos desta música
    00:00 / 00:00
    Automático

    Cifra Club Pro

    Aproveite o Cifra Club com benefícios exclusivos e sem anúncios
    Cifra Club Pro
    Aproveite o Cifra Club com benefícios exclusivos e sem anúncios
    OK