Cifra Club

Aprenda

Creator Failure

Iced Earth

Tab de baixo: Principal
tune down

F#||----------------------|---------------------|----------------------|
C#||----------------------|---------------------|----------------------|
G#||--5----8----7------5--|--7------------------|--5----7----8------7--|
D#||----------------------|---------0--0--------|----------------------|
                                                                   
---------------------|----------------------|---------------------|
---------------------|----------------------|---------------------|
--8------8--8--------|--5----8----7------5--|--7------------------|
---------------------|----------------------|---------0--0--------|
                                                                    
----------------------|---------------------|----------------------|
----------------------|---------------------|----------------------|
--5----7----8------7--|--8------8--8--------|--5----8----7------5--|
----------------------|---------------------|----------------------|
                                                                   
---------------------|----------------------|---------------------|
---------------------|----------------------|---------------------|
--7------------------|--5----7----8------7--|--8------8--8--------|
---------0--0--------|----------------------|---------------------|
                                                                    
----------------------|---------------------|----------------------|
----------------------|---------------------|----------------------|
--5----8----7------5--|--7------------------|--5----7----8------7--|
----------------------|---------0--0--------|----------------------|
                                                                  
---------------------|------------|------------------------------|
---------------------|------------|------------------------------|
--8------8--8--------|--5----8----|--7----------7--7----------7--|
---------------------|------------|-----0-0-0-0-------0-0-0-0----|
                                           
----------------------------|------------------------------|
----------------------------|------------------------------|
------------------5----8----|--7----------7--7----------7--|
--0-0-0-0-0-0-0-0-----------|-----0-0-0-0-------0-0-0-0----|
                                            
---------------------------|------------------------------|
---------------------------|------------------------------|
----------7------5----8----|--7----------7--7----------7--|
--0-0-0-0----0-0-----------|-----0-0-0-0-------0-0-0-0----|
                                                            
----------------------------|------------------------------|
----------------------------|------------------------------|
------------------5----8----|--7----------7--7----------7--|
--0-0-0-0-0-0-0-0-----------|-----0-0-0-0-------0-0-0-0----|

---------------------------|---------------------|----------------------|
---------------------------|---------------------|----------------------|
----------7------5----8----|--7---------------7--|----------------------|
--0-0-0-0----0-0-----------|-----------0---------|------0----0----0--0--|
                                                                   
---------------------|----------------------|---------------------|
---------------------|----------------------|---------------------|
--7---------------7--|----------------------|--7---------------7--|
-----------0---------|------0----0----0--0--|-----------0---------|
                                                                   
----------------------|----------------------|--------------------|
----------------------|----------------------|--------------------|
----------------------|--7---------------10--|----------5----8----|
------0----0----0--0--|-----------0----------|--------------------|
                                                                   
---------------------|----------------------|---------------------|
---------------------|----------------------|---------------------|
--7---------------7--|----------------------|--7---------------7--|
-----------0---------|------0----0----0--0--|-----------0---------|
                                                                    
----------------------|---------------------|----------------------|
----------------------|---------------------|----------------------|
----------------------|--7---------------7--|----------------------|
------0----0----0--0--|-----------0---------|------0----0----0--0--|
                                                                           
----------------------|--------------------|------------------------------|
----------------------|--------------------|------------------------------|
--7---------------10--|----------5----8----|--7----------7--7----------7--|
-----------0----------|--------------------|-----0-0-0-0-------0-0-0-0----|
                                                            
----------------------------|------------------------------|
----------------------------|------------------------------|
------------------5----8----|--7----------7--7----------7--|
--0-0-0-0-0-0-0-0-----------|-----0-0-0-0-------0-0-0-0----|
                                                           
---------------------------|------------------------------|
---------------------------|------------------------------|
----------7------5----8----|--7----------7--7----------7--|
--0-0-0-0----0-0-----------|-----0-0-0-0-------0-0-0-0----|
                                                            
----------------------------|------------------------------|
----------------------------|------------------------------|
------------------5----8----|--7----------7--7----------7--|
--0-0-0-0-0-0-0-0-----------|-----0-0-0-0-------0-0-0-0----|
                                                                      
---------------------------|----------------------|------------------|
---------------------------|----------------------|------------------|
----------7------5----8----|----------------------|------------------|
--0-0-0-0----0-0-----------|--0--0----------0--0--|------------------|
                                                          
----------------------|-------------------|----------------------|
----------------------|-------------------|----------------------|
----------------------|-------------------|----------------------|
--1--1----------1--1--|----------5--------|--0--0----------0--0--|
                                                     
------------------|----------------------|-------------------|
------------------|----------------------|-------------------|
------------------|----------------------|-------------------|
------------------|--1--1----------1--1--|----------5--------|
                                                                 
----------------------|------------------|----------------------|
----------------------|------------------|----------------------|
----------------------|------------------|----------------------|
--0--0----------0--0--|------------------|--1--1----------1--1--|
                                                       
-------------------|----------------------|------------------|
-------------------|----------------------|------------------|
-------------------|----------------------|------------------|
----------5--------|--0--0----------0--0--|------------------|
                                                               
----------------------|-------------------|-------------------|
----------------------|----------9--------|-------------------|
----------------------|-------------------|-------------------|
--1--1----------1--1--|-------------------|--7----------------|
                                                               
--------------------|-------------------|---------------------|
--------------------|-------------------|---------------------|
--------------------|-------------------|---------------------|
------------5----5--|--7----------------|----------7--5--3/---|
                                                             
-------------------|--------------------|-------------------|
-------------------|--------------------|-------------------|
-------------------|--------------------|-------------------|
--7----------------|------------5----5--|--7----------------|
                                                                
---------------------|-------------------|---------------------|
---------------------|-------------------|---------------------|
---------------------|-------------------|---------------------|
----------7--5--3/---|--7----------------|----------7--5--3/---|
                                                              
-------------------|---------------------|-------------------|
-------------------|---------------------|-------------------|
-------------------|---------------------|-------------------|
--7----------------|----------7--5--3/---|--7----------------|
                                                                
---------------------|-------------------|---------------------|
---------------------|-------------------|---------------------|
---------------------|-------------------|---------------------|
----------7--5--3/---|--7----------------|----------7--5--3/---|
                                                                     
----------------------|----------------------|----------------------|
----------------------|----------------------|----------------------|
----------------------|----------------------|----------------------|
--7------7--7------7--|--7--------7--5--3----|--7------7--7------7--|
                                                                        
----------------------|-------------------------|----------------------|
----------------------|--------------9----------|----------------------|
----------------------|-----------9-----9--5----|----------------------|
--7--------7--5--3----|--7--7--7----------------|--7--------7--5--3----|
                                                               
----------------------|----------------------|----------------------|
----------------------|----------------------|----------------------|
----------------------|----------------------|----------------------|
--7------7--7------7--|--7--------7--5--3----|--7------7--7------7--|
                                                                             
------------------|----------------------|----------------------------------|
------------------|----------------------|----------------------------------|
------------------|----------------------|----------------------------------|
------------------|--7------7--7------7--|------8-8-8-8-10-10-10-10-8-8-8-8-|
                                                                      
------------------------------|--------------------------------------|
------------------------------|--------------------------------------|
------------------------------|--------------------------------------|
--7--7-7-7-7-7--7--7-7-7-7-7--|--7-7-7-7-8-8-8-8-10-10-10-10-8-8-8-8-|
                                                                      
------------------------------|--------------------------------------|
------------------------------|--------------------------------------|
------------------------------|--------------------------------------|
--7--7-7-7-7-7--7--7-7-7-7-7--|--7-7-7-7-8-8-8-8-10-10-10-10-8-8-8-8-|

------------------------------|--------------------------------------|
------------------------------|--------------------------------------|
------------------------------|--------------------------------------|
--7--7-7-7-7-7--7--7-7-7-7-7--|--7-7-7-7-8-8-8-8-10-10-10-10-8-8-8-8-|
                                                                      
------------------------------|--------------------------------------|
------------------------------|--------------------------------------|
------------------------------|--------------------------------------|
--7--7-7-7-7-7--7--7-7-7-7-7--|--7-7-7-7-8-8-8-8-10-10-10-10-8-8-8-8-|
                                                               
------------------------------|--------------------------------------|
------------------------------|--------------------------------------|
------------------------------|--------------------------------------|
--7--7-7-7-7-7--7--7-7-7-7-7--|--7-7-7-7-8-8-8-8-10-10-10-10-8-8-8-8-|
                                                                  
------------------------------|--------------------------------------|
------------------------------|--------------------------------------|
------------------------------|--------------------------------------|
--7--7-7-7-7-7--7--7-7-7-7-7--|--7-7-7-7-8-8-8-8-10-10-10-10-8-8-8-8-|
                                                                           
--------------------------|-----------------------|--------------------------|
--------------------------|-----------------------|--------------------------|
--------------------------|--------------5--------|--7--7--7--7--7--7--7--7--|
--7--7--7--7--7--7--7--7--|--7--7--7--7-----------|--------------------------|
                                                                             
-------------------------|--------------------------|-----------------------|
-------------------------|--------------------------|-----------------------|
--7--7--7--7-------------|--------------------------|--------------5--------|
--------------7--5--3----|--7--7--7--7--7--7--7--7--|--7--7--7--7-----------|
                                                                                
--------------------------|-------------------------|--------------------------|
--------------------------|-------------------------|--------------------------|
--7--7--7--7--7--7--7--7--|--7--7--7--7-------------|--------------------------|
--------------------------|--------------7--5--3----|--7--7--7--7--7--7--7--7--|
                                                                             
-----------------------|--------------------------|-------------------------|
-----------------------|--------------------------|-------------------------|
--------------5--------|--7--7--7--7--7--7--7--7--|--7--7--7--7-------------|
--7--7--7--7-----------|--------------------------|--------------7--5--3----|
                                                                              
--------------------------|-----------------------|--------------------------|
--------------------------|-----------------------|--------------------------|
--------------------------|--------------5--------|--7--7--7--7--7--7--7--7--|
--7--7--7--7--7--7--7--7--|--7--7--7--7-----------|--------------------------|
                                                               
-------------------------|------------------------------------|
-------------------------|------------------------------------|
--7--7--7--7-------------|------------------------------------|
--------------7--5--3----|--7-7-7-7-8-7-7-7-7-7-10-10-8-8-7-7-|
                                                                          
------------------------------------|------------------------------------|
------------------------------------|------------------------------------|
------------------------------------|------------------------------------|
--7-7-7-7-8-7-7-7-7-7-10-10-8-8-7-7-|--7-7-7-7-8-7-7-7-7-7-10-10-8-8-7-7-|
                                                                        
------------------------------------|----------------------------------|
------------------------------------|----------------------------------|
------------------------------------|----------------------------------|
--7-7-7-7-8-7-7-7-7-7-10-10-8-8-7-7-|--0-0-0-0-0-0-0-0-0-0-0-0-0-0-0-0-|
                                                                        
----------------------------------|------------------------------------|
----------------------------------|------------------------------------|
----------------------------------|------------------------------------|
--2-2-2-2-2-2-2-2-3-3-3-3-2-2-2-2-|--7-7-7-7-8-7-7-7-7-7-10-10-8-8-7-7-|
                                                                        
------------------------------------|----------------------------------|
------------------------------------|----------------------------------|
------------------------------------|----------------------------------|
--7-7-7-7-8-7-7-7-7-7-10-10-8-8-7-7-|--0-0-0-0-0-0-0-0-0-0-0-0-0-0-0-0-|
                                                                   
----------------------------------|------------------------------------|
----------------------------------|------------------------------------|
----------------------------------|------------------------------------|
--2-2-2-2-2-2-2-2-3-3-3-3-2-2-2-2-|--7-7-7-7-8-7-7-7-7-7-10-10-8-8-7-7-|
                                                                        
------------------------------------|----------------------------------|
------------------------------------|----------------------------------|
------------------------------------|----------------------------------|
--7-7-7-7-8-7-7-7-7-7-10-10-8-8-7-7-|--0-0-0-0-0-0-0-0-0-0-0-0-0-0-0-0-|
                                                                 
----------------------------------|-----------------------------|
----------------------------------|-----------------------------|
----------------------------------|-----------------------------|
--2-2-2-2-2-2-2-2-3-3-3-3-2-2-2-2-|--7--7-7-8--7--7-7-10--8--7--|
                                                       
-----------------------------|-----------------------------|
-----------------------------|-----------------------------|
-----------------------------|-----------------------------|
--7--7-7-8--7--7-7-10--8--7--|--7--7-7-8--7--7-7-10--8--7--|
                                                                
-----------------------------|-------------------|------------------|
-----------------------------|-------------------|------------------|
-----------------------------|-------------------|------------------|
--7--7-7-8--7--7-7-10--8--7--|--0----------------|------------------|
                                                                       
-------------------|------------------|-------------------|------------------|
-------------------|------------------|-------------------|------------------|
-------------------|------------------|-------------------|------------------|
--0----------------|------------------|--0----------------|------------------|
                                                                              
-------------------|------------------|-------------------|------------------|
-------------------|------------------|-------------------|------------------|
-------------------|------------------|-------------------|------------------|
--0----------------|------------------|--0----------------|------------------|
                                                                              
-------------------|------------------|-------------------|------------------|
-------------------|------------------|-------------------|------------------|
-------------------|------------------|-------------------|------------------|
--0----------------|------------------|--0----------------|------------------|
                                                                         
-------------------|------------------|-------------------|------------------|
-------------------|------------------|-------------------|------------------|
-------------------|------------------|-------------------|------------------|
--0----------------|------------------|--0----------------|------------------|
                                                                              
-------------------|------------------|-------------------|------------------|
-------------------|------------------|-------------------|------------------|
-------------------|------------------|-------------------|------------------|
--0----------------|------------------|--0----------------|------------------|
                                                                         
-------------------|------------------|-------------------|--------------------|
-------------------|------------------|-------------------|--------------------|
-------------------|------------------|-------------------|--------------------|
--0----------------|------------------|--0----------------|----------19/-------|
                                                                   
---------------------|----------------------|---------------------|
---------------------|----------------------|---------------------|
---------------------|----------------------|---------------6--6--|
--0------------0--0--|----------1--0--1--0--|--0------------------|
                                                                 
-------------------|---------------------|----------------------|
-------------------|---------------------|----------------------|
----------5--------|---------------------|----------------------|
-------------------|--0------------0--0--|----------1--0--1--0--|
                                                                
---------------------|-------------------|---------------------|
---------------------|-------------------|---------------------|
---------------6--6--|----------5--------|---------------------|
--0------------------|-------------------|--0------------0--0--|
                                                             
----------------------|---------------------|-------------------|
----------------------|---------------------|-------------------|
----------------------|---------------6--6--|----------5--------|
----------1--0--1--0--|--0------------------|-------------------|
                                                             
---------------------|----------------------|---------------------|
---------------------|----------------------|---------------------|
---------------------|----------------------|---------------6--6--|
--0------------0--0--|----------1--0--1--0--|--0------------------|
                                                              
-------------------|---------------------|----------------------|
-------------------|---------------------|----------------------|
----------5--------|---------------------|----------------------|
-------------------|--0------------0--0--|----------1--0--1--0--|
                                                          
---------------------|-------------------|---------------------|
---------------------|-------------------|---------------------|
---------------6--6--|----------5--------|---------------------|
--0------------------|-------------------|--0------------0--0--|
                                                                 
----------------------|---------------------|-------------------|
----------------------|---------------------|-------------------|
----------------------|---------------6--6--|----------5--------|
----------1--0--1--0--|--0------------------|-------------------|
                                                             
---------------------|----------------------|---------------------|
---------------------|----------------------|---------------------|
---------------------|----------------------|---------------6--6--|
--0------------0--0--|----------1--0--1--0--|--0------------------|
                                                            
-------------------|---------------------|----------------------|
-------------------|---------------------|----------------------|
----------5--------|---------------------|----------------------|
-------------------|--0------------0--0--|----------1--0--1--0--|
                                                                
---------------------|-------------------|---------------------|
---------------------|-------------------|---------------------|
---------------6--6--|----------5--------|---------------------|
--0------------------|-------------------|--0------------0--0--|
                                                    
----------------------|---------------------|-------------------|
----------------------|---------------------|-------------------|
----------------------|---------------6--6--|----------5--------|
----------1--0--1--0--|--0------------------|-------------------|
                                                                   
---------------------|----------------------|---------------------|
---------------------|----------------------|---------------------|
---------------------|----------------------|---------------6--6--|
--0------------0--0--|----------1--0--1--0--|--0------------------|
                                                                 
-------------------|---------------------|----------------------|
-------------------|---------------------|----------------------|
----------5--------|---------------------|----------------------|
-------------------|--0------------0--0--|----------1--0--1--0--|
                                                                
---------------------|-------------------|---------------------|
---------------------|-------------------|---------------------|
---------------6--6--|----------5--------|---------------------|
--0------------------|-------------------|--0------------0--0--|
                                                                             
----------------------|---------------------|-------------------|----------||
----------------------|---------------------|-------------------|----------||
----------------------|---------------6--6--|----------5--------|----------||
----------1--0--1--0--|--0------------------|-------------------|----------||
Composição de Dave Abell / Jon Schaffer / Matthew Barlow / Randall Shawver
Colaboração e revisão:
  • Taino Vieira
17 exibições

0 comentários

Ver todos os comentários

Conseguiu tocar?

0 Tocaram 0 Ainda não

Grave um vídeo tocando Creator Failure e nos envie!

00:00 / 00:00
outros vídeos desta música
repetir qualidade Automático
Outros vídeos desta música
00:00 / 00:00
Automático

Cifra Club Pro

Aproveite o Cifra Club com benefícios exclusivos e sem anúncios
Cifra Club Pro
Aproveite o Cifra Club com benefícios exclusivos e sem anúncios
OK