Cifra Club

Aprenda

Damien

Iced Earth

Tab de baixo: Principal
Horror Show


F#|---9---------10p9-9------9-------7------|
C#|---9-------------------9---9---7---7----|
G#|-7-----7--7----------7-------5--------7-|
D#|----------------------------------------|
A#|----------------------------------------|
    T p   T T   p    P  

[DiGiorgio plays a 5 string bass but you can play it on 4,as the open b string is
only played in the fade put part]  

Then no bass for a while 

|------------------------|-------------------------|
|------------------------|-------------------------|
|------------------------|-------------------------|
|------------------------|-------------------------|
|-5-6-5-5-5-5-5-5-5-5-5-5|5-8-8--6-6-5-5-5-5-5-5-5-|Distorted verse

|--------|----------|------------------------------------------|
|--------|----------|------------------------------------------|
|--------|----------|---------5h7p5-8p7--------------9h10p9-8--|
|--------|----------|------------------------------------------|
|-5-555-5|--5--555-5|--5-555------------5--555-----------------|Bridge

|-------------------------------------------------------------|
|-------------------------------------------------------------|
|-7--7--7--7/5--5--5---5--5/3--3--3---3---3-2---2---2-----2---|
|-------------------------------------------------------------|Acoustic verse
|-5--5--5--5/3--3--3---3--3/1--1--1---1---1-0---0---0-----0---|

|--------------------------|------------------------------|
|--------------------------|------------------------------|
|--------------------------|------------------------------|
|--------------------------|------------------------------|
|-10###########8###########|6################5############|Chourus (# pick with tree fingers)


|-----9----9----9----10--------9---9-----9---|
|---7----7----7---7----------7---7---7---7---|
|-0----0----0----0----------0---0---0----0---| 
|--------------------------------------------|
|--------------------------------------------|


|-----------------------------------|
|-----------------------------------|
|-----------------------------------|
|-----------------------------------|
|-5-6-5-5-5-5-5-5-5-0-5-5-5-5-0-5-5-|Fade out 

I missed a couple of parts,but not that hard to figure out.
Composição de Jon Schaffer
166 exibições

0 comentários

Ver todos os comentários
00:00 / 00:00
outros vídeos desta música
repetir qualidade Automático
Outros vídeos desta música
00:00 / 00:00
Automático

Cifra Club Pro

Aproveite o Cifra Club com benefícios exclusivos e sem anúncios
Cifra Club Pro
Aproveite o Cifra Club com benefícios exclusivos e sem anúncios
OK