Cifra Club

Aprenda

Dante's Inferno

Iced Earth

Cifra: Principal (violão e guitarra)
tom: B
Play six times, with the melody A (below) starting on the third time,
        And carry the melody A through to the next section. 

Eb--||------------7--------7--------7--------------------7-------------
Bb--||---------0-----0--------0--------0--------------0-----0----------
Gb--||*-----0-----------0--------0--------0--------0-----------0-------
Db--||*----------------------------------------------------------------
Ab--||---7-----------------------------------7--6----------------------
Eb--||-----------------------------------------------------------------
                                                                        
                       6x                                               
Eb-7-------7------------||
Bb---0--------0---------||
Gb------0--------0-----*||
Db---------------------*||
Ab------------------(6)-|| 
Composição de Jon Schaffer
Colaboração e revisão:
  • Taino Vieira
1.901 exibições
    • ½ Tom
    • A
    • Bb
    • B
    • C
    • Db
    • D
    • Eb
    • E
    • F
    • F#
    • G
    • Ab
  • Adicionar à lista

    0 comentários

    Ver todos os comentários

    Conseguiu tocar?

    1 Tocaram 0 Ainda não

    Grave um vídeo tocando Dante's Inferno e nos envie!

    00:00 / 00:00
    outros vídeos desta música
    repetir qualidade Automático
    Outros vídeos desta música
    00:00 / 00:00
    Automático

    Cifra Club Pro

    Aproveite o Cifra Club com benefícios exclusivos e sem anúncios
    Cifra Club Pro
    Aproveite o Cifra Club com benefícios exclusivos e sem anúncios
    OK