Cifra Club

Aprenda

Dracula

Iced Earth

Tab de baixo: Principal
tune down

F#||------------------|------------------|------------------|------------------|
C#||------------------|------------------|------------------|------------------|
G#||------------------|------------------|------------------|------------------|
D#||------------------|------------------|------------------|------------------|
                                                                                
|-------------------|------------------|------------------|-------------------||
|*------------------|------------------|------------------|------------------*||
|*------------------|------------------|------------------|------------------*||
|-------------------|------------------|------------------|-------------------||
                                                                             
------------------|------------------|------------------|-------------------|
------------------|------------------|------------------|----------------7/-|
------------------|------------------|------------------|-------------------|
------------------|------------------|------------------|-------------------|
                                                             
--------------12-------------|--------------15-----14---12--|
--12-------12-----12-15----7/|--12-------12-----12----------|
-----------------------------|------------------------------|
-----------------------------|------------------------------|
                                                                          
------------------7--9h10h9-|-----------10---9---7--|--------------------|
--7------7--7h-10-----------|--7--------------------|--------------------|
----------------------------|-----------------------|--5---------------3/|
----------------------------|-----------------------|--------------------|
                                                                             
-------------------------|-----------------------|-------------10----9---7--|
-------------------------|-----------------------|-----------7-----7--------|
--5------------8--7------|-------------------10/-|--12----------------------|
---------------------10--|--5------------12------|--------------------------|
                                                               
--------------------|------------------------|-----------------------|
--------------------|------------------------|-----------------------|
--5---------------3/|--5--------12/--10/--8--|-------------------10/-|
--------------------|------------------------|--5------------12------|
                                                                   
------------------------|--------------------|--------------------|
------------10---9---7--|--------------------|--------------------|
--12--------------------|--------------------|--------------------|
------------------------|--0--------------1--|--0--------------1--|
                                                              
--------------------|--------------------|-------------------|
--------------------|--------------------|-------------------|
--------------------|--------------------|-------------------|
--0--------------1--|--0--------------1--|--0----------------|
                                                                
-------------------------------|-------------------------------|
-------------------------------|-------------------------------|
--5--5-5-5-5-5--5-5-5-5-5--5-5-|--5-5-5--5-5-5-5-5--5-5-5--5-5-|
-------------------------------|-------------------------------|
                                                                
-------------------------------|-------------------------------|
-------------------------------|------------------------5h-7-7-|
--5--5-5-5-5-5--5-5-5-5-5--5-5-|--5-5-5--5-5-5-5-3h-5-5--------|
-------------------------------|-------------------------------|
                                                              
-------------------------------|-----------------------------|
-------------------------------|-----------------------------|
-------------------------------|-----------------------------|
--5--5-5-5-5-5--5-5-5-5-5--5-5-|--5-5-5--5-5-5-5-5--5--5--3--
                                                            
-------------------------------|-----------------------------|
-------------------------------|-----------------------------|
-------------------------------|-----------------------------|
--5--5-5-5-5-5--5-5-5-5-5--5-5-|--5-5-5--5-5-5-5-5--5--5--5--|
                                                                
|--------------------------------|-------------------------------|
|*-------------------------------|-------------------------------|
|*--5--5-5-5-5-5--5-5-5-5-5--5-5-|--5-5-5--5-5-5-5-5--5-5-5--5-5-|
|--------------------------------|-------------------------------|
                                                                
-------------------------------|-------------------------------|
-------------------------------|-------------------------------|
--5--5-5-5-5-5--5-5-5-5-5--5-5-|--5-5-5--5-5-5-5-5--5-5--------|
-------------------------------|------------------------3--3-3-|
                                                      
-------------------------------|-----------------------------|
-------------------------------|-----------------------------|
-------------------------------|-----------------------------|
--5--5-5-5-5-5--5-5-5-5-5--5-5-|--5-5-5--5-5-5-5-5--5--5--3--|
                                                                
-------------------------------|------------------------------||
-------------------------------|-----------------------------*||
-------------------------------|-----------------------------*||
--5--5-5-5-5-5--5-5-5-5-5--5-5-|--5-5-5--5-5-5-5-5--5--5--5---||
                                                             
-------------------------------|----------------------------|
*------------------------------|----------------------------|
*------------------------------|-------------------3--4--3--|
---0-0-0-0-0--0--0-0-0-0-0--0--|--0-0-0-0-0--0--1-----------|
                                                        
------------------------------|-----------------------------||
------------------------------|----------------------------*||
------------------------------|-------------------3--------*||
--0-0-0-0-0--0--0-0-0-0-0--0--|--0-0-0-0-0--0--1-----4--3---||
                                                                 
--------------------------------|-------------------------------|
*-------------------------------|-------------------------------|
*--5--5-5-5-5-5--5-5-5-5-5--5-5-|--5-5-5--5-5-5-5-5--5-5-5--5-5-|
--------------------------------|-------------------------------|

-------------------------------|-------------------------------|
-------------------------------|-------------------------------|
--5--5-5-5-5-5--5-5-5-5-5--5-5-|--5-5-5--5-5-5-5-5--5-5--------|
-------------------------------|------------------------3--3-3-|
                                                              
-------------------------------|-----------------------------|
-------------------------------|-----------------------------|
-------------------------------|-----------------------------|
--5--5-5-5-5-5--5-5-5-5-5--5-5-|--5-5-5--5-5-5-5-5--5--5--3--|
                                                                
-------------------------------|------------------------------||
-------------------------------|-----------------------------*||
-------------------------------|-----------------------------*||
--5--5-5-5-5-5--5-5-5-5-5--5-5-|--5-5-5--5-5-5-5-5--5--5--5---||
                                                    
-------------------------------|----------------------------|
*------------------------------|----------------------------|
*------------------------------|-------------------3--4--3--|
---0-0-0-0-0--0--0-0-0-0-0--0--|--0-0-0-0-0--0--1-----------|
                                                        
------------------------------|-----------------------------||
------------------------------|----------------------------*||
------------------------------|-------------------3--------*||
--0-0-0-0-0--0--0-0-0-0-0--0--|--0-0-0-0-0--0--1-----4--3---||
                                                                       
-----------------------------------|----------------------------------|
*----------------------------------|----------------------------------|
*--5-5-5-5-5-5-5-5-5-5-5-5-5-5-5-5-|--5-5-5-5-5-5-5-5-5-5-5-5-5-5-5-5-|
-----------------------------------|----------------------------------|
                                                           
----------------------------------|----------------------------------|
----------------------------------|----------------------------------|
--5-5-5-5-5-5-5-5-5-5-5-5-5-5-5-5-|--5-5-5-5-5-5-5-5-5-5-5-5-5-5-5-5-|
----------------------------------|----------------------------------|
                                                   
--------------------------------------------------|
--------------------------------------------------|
--10h12-12-12-12-12-12-12-12-12-12-12-12-12-12-12-|
--------------------------------------------------|
                                                   
--------------------------------------------------|
--------------------------------------------------|
--10h12-12-12-12-12-12-12-12-12-12-12-12-12-12-12-|
--------------------------------------------------|
                                            
--------------------------------------------------|
--------------------------------------------------|
--10h12-12-12-12-12-12-12-12-12-12-12-12-12-12-12-|
--------------------------------------------------|
                                                   
--------------------------------------------------|
--------------------------------------------------|
--10h12-12-12-12-12-12-12-12-12-12-12-12-12-12-12-|
--------------------------------------------------|
                                                                      
----------------------------------|----------------------------------|
----------------------------------|----------------------------------|
--5-5-5-5-5-5-5-5-5-5-5-5-5-5-5-5-|--5-5-5-5-5-5-5-5-5-5-5-5-5-5-5-5-|
----------------------------------|----------------------------------
                                                                    
----------------------------------|----------------------------------|
----------------------------------|----------------------------------|
--5-5-5-5-5-5-5-5-5-5-5-5-5-5-5-5-|--5-5-5-5-5-5-5-5-5-5-5-5-5-5-5-5-|
----------------------------------|----------------------------------|
                                                   
--------------------------------------------------|
--------------------------------------------------|
--10h12-12-12-12-12-12-12-12-12-12-12-12-12-12-12-|
--------------------------------------------------|
                                                   
--------------------------------------------------|
--------------------------------------------------|
--10h12-12-12-12-12-12-12-12-12-12-12-12-12-12-12-|
--------------------------------------------------
                                                   
--------------------------------------------------|
--------------------------------------------------|
--10h12-12-12-12-12-12-12-12-12-12-12-12-12-12-12-|
--------------------------------------------------|
                                                                             
--------------------------------------------------|-------------------------|
--------------------------------------------------|-------------------------|
--10h12-12-12-12-12-12-12-12-12-12-12-12-12-12-12-|-------------------------|
--------------------------------------------------|--0----0--0--0--0--0--0--|
                                                                    
-----------------------|-------------------------|-----------------------|
-----------------------|-------------------------|-----------------------|
-----------------------|-------------------------|-----------------------|
--1------3----3--3--1--|--0----0--0--0--0--0--0--|--1------3----3--3--1--|
                                                                            
-------------------------|-----------------------|-------------------------|
-------------------------|-----------------------|-------------------------|
-------------------------|-----------------------|-------------------------|
--0----0--0--0--0--0--0--|--1------3----3--3--1--|--0----0--0--0--0--0--0--|
                                                                         
-----------------------||---------------------------|--------------------------|
-----------------------||*--------------------------|--------------------------|
-----------------------||*--3h-5--5--5--5--5--5--5--|--5--5--5--5--3h-5--3h-5--|
--1------3----3--3--1--||---------------------------|--------------------------|
                                                   
--------------------------|---------------------------||
--------------------------|-----------------7--5-----*||
--3h-5--5--5--5--5--5--5--|--5--5--5--5--5--------8--*||
--------------------------|---------------------------||
                                              
---------------------------|--------------------------|
*--------------------------|--------------------------|
*--------------------------|--------------------------|
---3h-5--5--5--5--5--5--5--|--5--5--5--5--3h-5--3h-5--|
                                                   
--------------------------|-----------------------------||
--------------------------|-----5--7--7-7-7-7-7--5-----*||
--------------------------|-------------------------8--*||
--3h-5--5--5--5--5--5--5--|--5--------------------------||
                                                       
---------------------------|--------------------------|
*--------------------------|--------------------------|
*--3h-5--5--5--5--5--5--5--|--5--5--5--5--3h-5--3h-5--|
---------------------------|--------------------------|
                                                  
--------------------------|---------------------------||
--------------------------|-----------------7--5-----*||
--3h-5--5--5--5--5--5--5--|--5--5--5--5--5--------8--*||
--------------------------|---------------------------||

--------------------------------|-----------------------------|
*-------------------------------|-----------------------------|
*-------------------------------|-----------------------------|
---5--5-5-5-5-5--5-5-5-5-5--5-5-|--5-5-5--5-5-5-5-5--3--6/-5--|

-------------------------------|------------------------------||
-------------------------------|-----------------------------*||
-------------------------------|-----------------------------*||
--5--5-5-5-5-5--5-5-5-5-5--5-5-|--5-5-5--5-5-5-5-5--3--6/-5---||
                                                            
-----------------------------------|----------------------------------|
*----------------------------------|----------------------------------|
*--5-5-5-5-5-5-5-5-5-5-5-5-5-5-5-5-|--5-5-5-5-5-5-5-5-5-5-5-5-5-5-5-5-|
-----------------------------------|----------------------------------|
                                                                      
----------------------------------|----------------------------------|
----------------------------------|----------------------------------|
--5-5-5-5-5-5-5-5-5-5-5-5-5-5-5-5-|--5-5-5-5-5-5-5-5-5-5-5-5-5-5-5-5-|
----------------------------------|----------------------------------|
                                                   
--------------------------------------------------|
--------------------------------------------------|
--10h12-12-12-12-12-12-12-12-12-12-12-12-12-12-12-|
--------------------------------------------------|
                                                   
--------------------------------------------------|
--------------------------------------------------|
--10h12-12-12-12-12-12-12-12-12-12-12-12-12-12-12-|
--------------------------------------------------|
                                           
--------------------------------------------------|
--------------------------------------------------|
--10h12-12-12-12-12-12-12-12-12-12-12-12-12-12-12-|
--------------------------------------------------|
                                                   
--------------------------------------------------|
--------------------------------------------------|
--10h12-12-12-12-12-12-12-12-12-12-12-12-12-12-12-|
--------------------------------------------------|
                                                                      
----------------------------------|----------------------------------|
----------------------------------|----------------------------------|
--5-5-5-5-5-5-5-5-5-5-5-5-5-5-5-5-|--5-5-5-5-5-5-5-5-5-5-5-5-5-5-5-5-|
----------------------------------|----------------------------------|
                                                                      
----------------------------------|----------------------------------|
----------------------------------|----------------------------------|
--5-5-5-5-5-5-5-5-5-5-5-5-5-5-5-5-|--5-5-5-5-5-5-5-5-5-5-5-5-5-5-5-5-|
----------------------------------|----------------------------------|
                                            
--------------------------------------------------|
--------------------------------------------------|
--10h12-12-12-12-12-12-12-12-12-12-12-12-12-12-12-|
--------------------------------------------------|
                                                   
--------------------------------------------------|
--------------------------------------------------|
--10h12-12-12-12-12-12-12-12-12-12-12-12-12-12-12-|
--------------------------------------------------
                                                   
--------------------------------------------------|
--------------------------------------------------|
--10h12-12-12-12-12-12-12-12-12-12-12-12-12-12-12-|
--------------------------------------------------|
                                                                               
---------------------------------------------------||-------------------------|
--------------------------------------------------*||-------------------------|
--10h12-12-12-12-12-12-12-12-12-12-12-12-12-12-12-*||-------------------------|
---------------------------------------------------||--0----0--0--0--0--0--0--|
                                                                      
-----------------------|-------------------------|-----------------------|
-----------------------|-------------------------|-----------------------|
-----------------------|-------------------------|-----------------------|
--1------3----3--3--1--|--0----0--0--0--0--0--0--|--1------3----3--3--1--|
                                                                          
-------------------------|-----------------------|-------------------------|
-------------------------|-----------------------|-------------------------|
-------------------------|-----------------------|-------------------------|
--0----0--0--0--0--0--0--|--1------3----3--3--1--|--0----0--0--0--0--0--0--|
                                                                              
-----------------------|--------------------------|--------------------------|
-----------------------|--------------------------|--------------------------|
-----------------------|--3h-5--5--5--5--5--5--5--|--5--5--5--5--3h-5--3h-5--|
--1------3----3--3--1--|--------------------------|--------------------------|
                                                                      
--------------------------|-------------------------|-------------------||
--------------------------|-----------------7-------|-------------------||
--3h-5--5--5--5--5--5--5--|--5--5--5--5--5-----3----|--5----------------||
--------------------------|-------------------------|-------------------||
Composição de Jon Schaffer
Colaboração e revisão:
  • Taino Vieira
118 exibições

0 comentários

Ver todos os comentários
00:00 / 00:00
outros vídeos desta música
repetir qualidade Automático
Outros vídeos desta música
00:00 / 00:00
Automático

Cifra Club Pro

Aproveite o Cifra Club com benefícios exclusivos e sem anúncios
Cifra Club Pro
Aproveite o Cifra Club com benefícios exclusivos e sem anúncios
OK