Cifra Club

Aprenda

Electric Funeral

Iced Earth

Cifra: Principal (violão e guitarra)
tom: G
Tuning: D (drop all strings a whole step)

d|------------------------------|
A|------------------------------|
F|------------------------------|
C|------------------------------|
G|--------2-3-2~~~--------------|
D|--0--0------------0--2-3-2~~~-|

Verse
d|-------------------------------------------------|
A|-------------------------------------------------|
F|-------------------------------------------------|
C|---------------------------------4----3----2-----|
G|------2----1----0-------2-2-2-2--2----1----0--5--|
D|--0----------------3----0-0-0-0---------------3--|
* * * *

d|------------------------------|
A|------------------------------|
F|------------------------------|
C|------------------------------|
G|--------2-3-2~~~--------------|
D|--0--0------------0--2-3-2~~~-|

Verse
d|-------------------------------------------------|
A|-------------------------------------------------|
F|-------------------------------------------------|
C|---------------------------------4----3----2-----|
G|------2----1----0-------2-2-2-2--2----1----0--5--|
D|--0----------------3----0-0-0-0---------------3--|
* * * *
Last time
d|------------------------------|-----|
A|------------------------------|-----|
F|------------------------------|-----|
C|------------------------------|-----|
G|--------2-3-2~~~--------------|--2--|
D|--0--0------------0--2-3-2~~~-|--0--|

Interlude
d|---------------|
A|---------------|
F|---------------|
C|--9----8----7--|
G|--7----6----5--|
D|--7----6----5--|

d|-------------------------|
A|-------------------------|
F|------------12-12-12--12-|
C|--9--7--9---12-12-12--12-|
G|--7--5--7----------------|
D|-------------------------|
x2
d|---------------------------------------|
A|---------------------------------------|
F|-----12-14-12-14^r------12-14-15-14-12-|
C|--14-----------------14----------------|
G|---------------------------------------|
D|---------------------------------------|

d|-------------------------|
A|-------------------------|
F|------------12-12-12--12-|
C|--9--7--9---12-12-12--12-|
G|--7--5--7----------------|
D|-------------------------|

x2
d|---------------------------------------|
A|---------------------------------------|
F|-----12-14-12-14^r------12-14-15-14-12-|
C|--14-----------------14----------------|
G|---------------------------------------|
D|---------------------------------------|

x4 x2
d|-12--12--12--12---|--10-10-10-12/15-12-|--10-10-10-12/15~-|
A|-15^-15^-15^-15^--|--------------------|------------------|
F|------------------|--------------------|------------------|
C|------------------|---------------5----|---------------5~-|
G|--7-6-5-----------|---5--5--5--7-----7-|---5--5--5--7-----|
D|----------7-6-5---|--------------------|------------------|

d|------------------------------|
A|------------------------------|
F|------------------------------|
C|------------------------------|
G|--------2-3-2~~~--------------|
D|--0--0------------0--2-3-2~~~-|

Verse x2
d|-------------------------------------------------|
A|-------------------------------------------------|
F|-------------------------------------------------|
C|------4----3----2----------------4----3----2-----|
G|--2---2----1----0--5----2-2-2-2--2----1----0--5--|
D|--0----------------3----0-0-0-0---------------3--|
* * * *
x3
d|-----------------------------------|
A|-----------------------------------|
F|-----------------------------------|
C|-----------4-------3---------------|
G|--2--------2-------1---------------|
D|--0--0-0-0---0-0-0---0-0-0--5--3~--|
* * * * * * * * * ah ah

d|----------------------------------|
A|----------------------------------|
F|----------------------------------|
C|----------------------------------|
G|----------2-2-2-2-1-1-1-1---------|
D|--0-0-0-0------------------5--3~--|
* * * * * * * * * * * * ah ah

d|------------------------------|
A|------------------------------|
F|------------------------------|
C|------------------------------|
G|--------2-3-2~~~--------------|
D|--0--0------------0--2-3-2~~~-|

d|---------------|
A|---------------|
F|--9----8----7--|
C|--9----8----7--|
G|--7----6----5--|
D|--7----6----5--|
Composição de Butler / Iommi / Osbourne / Ward
Colaboração e revisão:
  • Taino Vieira
783 exibições
    • ½ Tom
    • A
    • Bb
    • B
    • C
    • Db
    • D
    • Eb
    • E
    • F
    • F#
    • G
    • Ab
  • Adicionar à lista

    0 comentários

    Ver todos os comentários

    Conseguiu tocar?

    1 Tocaram 1 Ainda não

    Grave um vídeo tocando Electric Funeral e nos envie!

    00:00 / 00:00
    outros vídeos desta música
    repetir qualidade Automático
    Outros vídeos desta música
    00:00 / 00:00
    Automático

    Cifra Club Pro

    Aproveite o Cifra Club com benefícios exclusivos e sem anúncios
    Cifra Club Pro
    Aproveite o Cifra Club com benefícios exclusivos e sem anúncios
    OK