Cifra Club

Aprenda

Prophecy

Iced Earth

Tab de baixo: Principal
F#||-----7---10-----9---7-----7-----7---|----7---10-----9---7-----7-----7---|
C#||*--7---7----7-7---7---7-7---7-7---7-|--7---7----7-7---7---7-7---7-7---7-|
G#||*-----------------------------------|-----------------------------------|
D#||------------------------------------|-----------------------------------|
                                                                        2x
----7---10-----9---7-----7-----7---|----7---10-----9---7-----7-----7----||
--8---8----8-8---8---8-8---8-8---8-|--8---8----8-8---8---8-8---8-8---8-*||
-----------------------------------|-----------------------------------*||
-----------------------------------|------------------------------------||
                                                                   
----------------------|---------------------|---------------------|
*---------------------|---------------------|---------------------|
*--5---5---5----------|--5---5---5----------|--5---5---5----------|
----------------------|---------------------|---------------------|
                                                       
----------------------||-----------------------------------|
---------------------*||*--7-----5-----8-----5-----7---7---|
--5---5---5----------*||*----0-0---0-0---0-0---0-0---0---0-|
----------------------||-----------------------------------|
                                                          
----------------------------------|---------------------||
--7-----5-----8-----5-----7---7---|--------------------*||
----0-0---0-0---0-0---0-0---0---0-|--------------------*||
----------------------------------|--1--------3---------||
                                                                      
-----7---10-----9---7-----7-----7---|----7---10-----9---7-----7-----7---|
*--7---7----7-7---7---7-7---7-7---7-|--7---7----7-7---7---7-7---7-7---7-|
*-----------------------------------|-----------------------------------|
------------------------------------|-----------------------------------|
                                                                        2x
----7---10-----9---7-----7-----7---|----7---10-----9---7-----7-----7----||
--8---8----8-8---8---8-8---8-8---8-|--8---8----8-8---8---8-8---8-8---8-*||
-----------------------------------|-----------------------------------*||
-----------------------------------|------------------------------------||
                                                                   
----------------------|---------------------|---------------------|
*---------------------|---------------------|---------------------|
*--5---5---5----------|--5---5---5----------|--5---5---5----------|
----------------------|---------------------|---------------------|
                                                         
----------------------||-----------------------------------|
---------------------*||*--7-----5-----8-----5-----7---7---|
--5---5---5----------*||*----0-0---0-0---0-0---0-0---0---0-|
----------------------||-----------------------------------|
                                                     
----------------------------------|---------------------||
--7-----5-----8-----5-----7---7---|--------------------*||
----0-0---0-0---0-0---0-0---0---0-|--------------------*||
----------------------------------|--1--------3---------||
                                                                        
-----------------------------------|-----------------------------------|
--------------7---5---7-----5-7-8--|---------------7---5---7-----5-7-8-|
--5-5-5-5-5-5------ ------5--------|--5--5-5-5-5-5-------------5-------|
-----------------------------------|-----------------------------------|
                                                                      
-----------------------------------|-----------------------------------|
--------------5---3---5-----6-5-3--|--------------5---3---5-----6-5-3--|
--3-3-3-3-3-3-------------3--------|--3-3-3-3-3-3-------------3--------|
-----------------------------------|-----------------------------------|
                                            
|------------------------------------------|
|*-----------------------------------------|
|*--5-5-5-5-5-5-5-5-5-5-5-5-5-5-5-5-5-5-5--|
|------------------------------------------|
                                     
-----------------------------------------|
-----------------------------------------|
--5-5-5-5-5-5-5-5-5-5-5-5-5-5-5-5-5-5-5--|
-----------------------------------------|
                                          
-----------------------------------------|
-----------------------------------------|
--3-3-3-3-3-3-3-3-3-3-3-3-3-3-3-3-3-3-3--|
-----------------------------------------|
                                                                       
------------------------------------------||------------------------------|
-----------------------------------------*||*-----------------------------|
--3-3-3-3-3-3-3-3-3-3-3-3-3-3-3-3-3-3-3--*||*--5-5-5-5-5-5-5-5------6--3--|
------------------------------------------||------------------------------|
                                                           
-----------------------------|----------------------------------|
-----------------------------|------------5/-3------------------|
--5-5-5-5-5-5-5-5------6--3--|--8-8-8-8-8-------6-6-6-6-6-8/-6--|
-----------------------------|----------------------------------|
                                                                           
------------------------------||------------------------------------------|
-----------------------------*||*-----------------------------------------|
--5-5-5-5-5-5-5-5------6--3--*||*--5-5-5-5-5-5-5-5-5-5-5-5-5-5-5-5-5-5-5--|
------------------------------||------------------------------------------|
                                          
-----------------------------------------|
-----------------------------------------|
--5-5-5-5-5-5-5-5-5-5-5-5-5-5-5-5-5-5-5--|
-----------------------------------------|
                                          
-----------------------------------------|
-----------------------------------------|
--3-3-3-3-3-3-3-3-3-3-3-3-3-3-3-3-3-3-3--|
-----------------------------------------|

------------------------------------------||------------------------------|
-----------------------------------------*||*-----------------------------|
--3-3-3-3-3-3-3-3-3-3-3-3-3-3-3-3-3-3-3--*||*--5-5-5-5-5-5-5-5------6--3--|
------------------------------------------||------------------------------|
                                                              
-----------------------------|----------------------------------|
-----------------------------|------------5/-3------------------|
--5-5-5-5-5-5-5-5------6--3--|--8-8-8-8-8-------6-6-6-6-6-8/-6--|
-----------------------------|----------------------------------|
                                                                        
------------------------------||------------------------------------------|
-----------------------------*||*-----------------------------------------|
--5-5-5-5-5-5-5-5------6--3--*||*--5-5-5-5-5-5-5-5-5-5-5-5-5-5-5-5-5-5-5--|
------------------------------||------------------------------------------|
                                          
-----------------------------------------|
-----------------------------------------|
--5-5-5-5-5-5-5-5-5-5-5-5-5-5-5-5-5-5-5--|
-----------------------------------------|
                                          
-----------------------------------------|
-----------------------------------------|
--3-3-3-3-3-3-3-3-3-3-3-3-3-3-3-3-3-3-3--|
-----------------------------------------|
                                                                                
------------------------------------------||-----------------------------------|
-----------------------------------------*||*----------------------------------|
--3-3-3-3-3-3-3-3-3-3-3-3-3-3-3-3-3-3-3--*||*--5-5-5-5-5-5-5-5-5-5-5-5-5-6--3--|
------------------------------------------||-----------------------------------
                                                                 
----------------------------------|------------------------------------|
----------------------------------|----------------5/3-----------------|
--5-5-5-5-5-5-5-5-5-5-5-5-5-6--3--|--8-8-8-8-8-8-8-----6-6-6-6-6-8/-6--|
----------------------------------|------------------------------------|
                                                 
-----------------------------------||-------------------|
----------------------------------*||-------------------|
--5-5-5-5-5-5-5-5-5-5-5-5-5-6--3--*||--5----------------|
-----------------------------------||-------------------|
                                                                        
----7---10-----9---7-----7-----7---|----7---10-----9---7-----7-----7---|
--7---7----7-7---7---7-7---7-7---7-|--7---7----7-7---7---7-7---7-7---7-|
-----------------------------------|-----------------------------------|
-----------------------------------|-----------------------------------|
                                                                    
----7---10-----9---7-----7-----7---|----7---10-----9---7-----7-----7---|
--8---8----8-8---8---8-8---8-8---8-|--8---8----8-8---8---8-8---8-8---8-|
-----------------------------------|-----------------------------------|
-----------------------------------|-----------------------------------|
                                                                     
----7---10-----9---7-----7-----7---|----7---10-----9---7-----7-----7---|
--7---7----7-7---7---7-7---7-7---7-|--7---7----7-7---7---7-7---7-7---7-|
-----------------------------------|-----------------------------------|
-----------------------------------|-----------------------------------|
                                                                        
----7---10-----9---7-----7-----7---|----7---10-----9---7-----7-----7---|
--8---8----8-8---8---8-8---8-8---8-|--8---8----8-8---8---8-8---8-8---8-|
-----------------------------------|-----------------------------------|
-----------------------------------|-----------------------------------|
                                                                    
|----------------------|---------------------|---------------------|
|*---------------------|---------------------|---------------------|
|*--5---5---5----------|--5---5---5----------|--5---5---5----------|
|----------------------|---------------------|---------------------|
                                                                  
----------------------||---------------------|-------------------|
---------------------*||---------------------|-------------------|
--5---5---5----------*||--5---5---5----------|--5----------------|
----------------------||---------------------|-------------------|
                    
------------------||
------------------||
------------------||
------------------||
Composição de Schaffer
Colaboração e revisão:
  • Taino Vieira
39 exibições

0 comentários

Ver todos os comentários

Conseguiu tocar?

0 Tocaram 0 Ainda não

Grave um vídeo tocando Prophecy e nos envie!

00:00 / 00:00
outros vídeos desta música
repetir qualidade Automático
Outros vídeos desta música
00:00 / 00:00
Automático

Cifra Club Pro

Aproveite o Cifra Club com benefícios exclusivos e sem anúncios
Cifra Club Pro
Aproveite o Cifra Club com benefícios exclusivos e sem anúncios
OK