Cifra Club

Aprenda

Solitude

Iced Earth

Cifra: Principal (violão e guitarra)
tom: B
Iced Earth:Solitude
Álbum:Days of Purgatory

Gtr.1
D#|------------------------|  
A#|------------------------|
F#|------------0---0-------|2x
C#|---5---5---4-4-4-4------|
G#|--7-7-7-7-5---5---------|
D#|-0---0------------------|

D#|--------------------------------|
A#|---0-------0--------------------|
F#|--5-5-5-5-4-4-4-4---------------|2x
C#|-7---7-7-5---5-5----------------|
G#|--------------------------------|
D#|--------------------------------|

D#|-------0-------0-----------|
A#|---0-------0---------------|
F#|--2-2-2-2-2-2-2-2----------|
C#|-3---3---3---3-------------|
G#|---------------------------|
D#|---------------------------|

D#|---------------------------|
A#|---0---7---0---7-----------|
F#|--4-4-4-4-4-4-4-4----------|
C#|-5---5---5---5-------------|
G#|---------------------------|
D#|---------------------------|

Gtr.2
D#|----------------------------|
A#|----------------------------|
F#|----------------------------|2x
C#|-7-----7--7-5------5-5------|
G#|----------------------------|
D#|----------------------------|

D#|------------------------------------|
A#|------------------------------------|
F#|------------------------------------|
C#|-3--------3------3-3------3----3----|
G#|------------------------------------|
D#|------------------------------------|

D#|------------------------------------|
A#|------------------------------------|
F#|------------------------------------|
C#|-5--------5------5-5-------5----5---|
G#|------------------------------------|
D#|------------------------------------|

Repeat gtr1&2 until very end,then play:
D#|-----0----|
A#|-----0----|
f#|-----5----|
C#|-----7----|
G#|---7------|
D#|-0--------|


solo
Gtr.1
D#|----------------------------|
A#|---8-7------------7-8-------|
F#|-9-----9----7-7-9-----------|2x
C#|----------------------------|
G#|----------------------------|
D#|----------------------------|

D#|----------------------7h8-7--|
A#|---8-7-8-10-----8-7-8--------|
F#|-7------------7--------------|2x
C#|-----------------------------|
G#|-----------------------------|
D#|-----------------------------|

D#|-----------------------|
A#|-----------------------|
F#|-7---------------------|
C#|---10-9-7---------7-9--|
G#|-----------8-8-10------|
D#|-----------------------|

D#|-----------------------|
A#|-----------------------|
F#|-----------------------|
C#|-10-9-7-------------7--|
G#|-------10--7-7-8-10----|
D#|-----------------------|

Gtr.2
D#|-------------------------|
A#|-8-12-10-8-------8-10-12-|
F#|------------11-11--------|2x
C#|-------------------------|
G#|-------------------------|
D#|-------------------------|

D#|------------8---------------10h12-10-|
A#|-8-12-10-12------8-10-12-10----------|
F#|-------------------------------------|2x
C#|-------------------------------------|
G#|-------------------------------------|
D#|-------------------------------------|

D#|--------------------------|
A#|--------------------------|
F#|-10-9-7---------------7---|
C#|--------10---7-7-9-10-----|
G#|--------------------------|
D#|--------------------------|

D#|--------------------------|
A#|--------------------------|
F#|--------------------------|
C#|-9-7--------------7-9-10--|
G#|-----10-9---10-10---------|
D#|--------------------------|

Repeat the above lead until end,then play:
Gtr.1
D#|-----------|
A#|---8-7-----|
F#|-9-----9---|
C#|-----------|
G#|-----------|
D#|-----------|

Gtr.2
D#|-----------|
A#|-8-10-12-8-|
F#|-----------|
C#|-----------|
G#|-----------|
D#|-----------|

Notation:
h:hammer-on
Composição de Jon Schaffer / Randall Shawver
Colaboração e revisão:
  • Egberto V.
2.523 exibições
    • ½ Tom
    • A
    • Bb
    • B
    • C
    • Db
    • D
    • Eb
    • E
    • F
    • F#
    • G
    • Ab
  • Adicionar à lista

    0 comentários

    Ver todos os comentários

    Conseguiu tocar?

    1 Tocaram 0 Ainda não

    Grave um vídeo tocando Solitude e nos envie!

    00:00 / 00:00
    outros vídeos desta música
    repetir qualidade Automático
    Outros vídeos desta música
    00:00 / 00:00
    Automático

    Cifra Club Pro

    Aproveite o Cifra Club com benefícios exclusivos e sem anúncios
    Cifra Club Pro
    Aproveite o Cifra Club com benefícios exclusivos e sem anúncios
    OK