Cifra Club

Aprenda

The Phantom Opera Ghost

Iced Earth

Tab de baixo: Principal
Listen For Timing

F#||-------------------|------------------|------------------|
C#||*------------------|------------------|------------------|
G#||*------------------|------------------|------------------|
D#||-------------------|------------------|------------------|
                                                               
------------------|-----------------------|-----------------------|
------------------|--2--3--5--0--2--------|-----------------------|
------------------|-----------------------|--3--2-----2--0--------|
------------------|-----------------------|--------3--------------|

---------------3--2----|-----------------------|-------||------------------|
------2--3--5----------|-----------------------|------*||------------------|
-----------------------|------3--2-----2--0----|------*||------------------|
-----------------------|------------3----------|-------||------------------|

-------------------------|---------------------|-------------------------|
-------------------------|---------------------|-------------------------|
-------------------------|---------------------|-------------------------|
--5----5-5-5--5---3---6--|----6----6--5/-------|--5----5-5-5--5---3---6--|
                                                                      
---------------------|-----------------------|-----------------------|
---------------------|-----------------------|-----------------------|
---------------------|-----------------------|-----------------------|
----6----6--5/-------|--8----8-8-8--8/-------|--6----6-6-6--6/-------|
                                                                          
-------------------------|---------------------|-------------------------|
-------------------------|---------------------|-------------------------|
-------------------------|---------------------|-------------------------|
--5----5-5-5--5---3---6--|----6----6--5/-------|--5----5-5-5--5---3---6--|
                                                                   
---------------------|-----------------------|-----------------------|
---------------------|-----------------------|-----------------------|
---------------------|-----------------------|-----------------------|
----6----6--5/-------|--8----8-8-8--8/-------|--6----6-6-6--6/-------|
                                                                             
|------------------------|--------------------------|-----------------------|
|*-----------------------|--------------------------|-----------------------|
|*--0------0-0-0------0--|--0------0-0-0-0--0----0--|--0------0-0-0------0--|
|------------------------|--------------------------|-----------------------|
                                                                           
--------------------------|-----------------------|--------------------------|
--------------------------|-----------------------|--------------------------|
--0------0-0-0-0--0----0--|--0------0-0-0------0--|--0------0-0-0-0--0----0--|
--------------------------|-----------------------|--------------------------|
                                                                               
-----------------------|--------------------------|---------------------------|
-----------------------|--------------------------|---------------------------|
--0------0-0-0------0--|--0------0-0-0-0--0----0--|---------------------------|
-----------------------|--------------------------|--0--0-0-0--0--0--0--0--0--|

---------------------------|--------------------------|
---------------------------|--------------------------|
---------------------------|--------------------------|
--1/-0--0--0--0--0-0-0--0--|--3--3--3-3-3--1--1----1--|
                                                    
--------------------------|---------------------------|
--------------------------|---------------------------|
--------------------------|---------------------------|
----0--0--0-0-0--0--0--0--|--0--0-0-0--0--0--0--0--0--|
                                                     
---------------------------|--------------------------|
---------------------------|--------------------------|
---------------------------|--------------------------|
--1/-0--0--0--0--0-0-0--0--|--3--3--3-3-3--1--1----1--|
                                                       
---------------------------||----------------------------|
--------------------------*||----------------------------|
--------------------------*||----------------------------|
----0--0--0-0-0--0--0--0---||--5----5--5-5-5--5-5-5--5-5-|
                                                 
-------------------------|-----------------------------|
-------------------------|-----------------------------|
-------------------------|-----------------------------|
--5--5-5-5--6----3----3--|--3/-5--5--5-5-5--5-5-5--5-5-|
                                                       
-----------------------------|----------------------------|
-----------------------------|----------------------------|
-----------------------------|----------------------------|
--5--5-5-5--5-5-5--5-5-5--3--|--5----5--5-5-5--5-5-5--5-5-|
                                                     
-------------------------|-----------------------------|
-------------------------|-----------------------------|
-------------------------|-----------------------------|
--5--5-5-5--6----3----3--|--3/-5--5--5-5-5--5-5-5--5-5-|
                                                        
-----------------------------||------------------------|
-----------------------------||*-----------------------|
-----------------------------||*--0------0-0-0------0--|
--5--5-5-5--5-5-5--5-5-5--3--||------------------------|
                                                                              
--------------------------|-----------------------|--------------------------|
--------------------------|-----------------------|--------------------------|
--0------0-0-0-0--0----0--|--0------0-0-0------0--|--0------0-0-0-0--0----0--|
--------------------------|-----------------------|--------------------------|
                                                                           
-----------------------|--------------------------|-----------------------|
-----------------------|--------------------------|-----------------------|
--0------0-0-0------0--|--0------0-0-0-0--0----0--|--0------0-0-0------0--|
-----------------------|--------------------------|-----------------------|
                                                       
--------------------------|---------------------------|
--------------------------|---------------------------|
--0------0-0-0-0--0----0--|---------------------------|
--------------------------|--0--0-0-0--0--0--0--0--0--|
                                                       
---------------------------|--------------------------|
---------------------------|--------------------------|
---------------------------|--------------------------|
--1/-0--0--0--0--0-0-0--0--|--3--3--3-3-3--1--1----1--|
                                                       
--------------------------|---------------------------|
--------------------------|---------------------------|
--------------------------|---------------------------|
----0--0--0-0-0--0--0--0--|--0--0-0-0--0--0--0--0--0--|
                                                  
---------------------------|--------------------------|
---------------------------|--------------------------|
---------------------------|--------------------------|
--1/-0--0--0--0--0-0-0--0--|--3--3--3-3-3--1--1----1--|
                                                          
---------------------------||----------------------------|
--------------------------*||----------------------------|
--------------------------*||----------------------------|
----0--0--0-0-0--0--0--0---||--5----5--5-5-5--5-5-5--5-5-|
                                                    
-------------------------|-----------------------------|
-------------------------|-----------------------------|
-------------------------|-----------------------------|
--5--5-5-5--6----3----3--|--3/-5--5--5-5-5--5-5-5--5-5-|
                                                         
-----------------------------|----------------------------|
-----------------------------|----------------------------|
-----------------------------|----------------------------|
--5--5-5-5--5-5-5--5-5-5--3--|--5----5--5-5-5--5-5-5--5-5-|
                                                        
-------------------------|-----------------------------|
-------------------------|-----------------------------|
-------------------------|-----------------------------|
--5--5-5-5--6----3----3--|--3/-5--5--5-5-5--5-5-5--5-5-|
                                                        
-----------------------------||-----------------------------|
-----------------------------||*----------------------------|
-----------------------------||*----------------------------|
--5--5-5-5--5-5-5--5-5-5--3--||---5----5--5-5-5--5-5-5--5-5-|
                                                      
-------------------------|-----------------------------|
-------------------------|-----------------------------|
-------------------------|-----------------------------|
--5--5-5-5--6----3----3--|--3/-5--5--5-5-5--5-5-5--5-5-|
                                                             
------------------------------||----------------------------|
-----------------------------*||----------------------------|
-----------------------------*||----------------------------|
--5--5-5-5--5-5-5--5-5-5--3---||--3----3--3-3-3--3-3-3--3-3-|
                                                         
------------------------------|------------------------------|
------------------------------|------------------------------|
------------------------------|------------------------------|
--3--3-3-3--3-3-3--3-3-3--3-3-|--3--3-3-3--3-3-3--3-3-3--3-3-|
                                                          
----------------------------|----------------------------|
----------------------------|----------------------------|
----------------------------|----------------------------|
--3--3-3-3--3-3-3--3-3-3----|--5----5--5-5-5--5-5-5--5-5-|
                                                        
-------------------------|-----------------------------|
-------------------------|-----------------------------|
-------------------------|-----------------------------|
--5--5-5-5--6----3----3--|--3/-5--5--5-5-5--5-5-5--5-5-|
                                                           
-----------------------------|----------------------------|
-----------------------------|----------------------------|
-----------------------------|----------------------------|
--5--5-5-5--5-5-5--5-5-5--3--|--3----3--3-3-3--3-3-3--3-3-|
                                                              
------------------------------|------------------------------|
------------------------------|------------------------------|
------------------------------|------------------------------|
--3--3-3-3--3-3-3--3-3-3--3-3-|--3--3-3-3--3-3-3--3-3-3--3-3-|
                                                         
----------------------------||-----------------------------|
----------------------------||*----------------------------|
----------------------------||*----------------------------|
--3--3-3-3--3-3-3--3-3-3----||---5----5--5-5-5--5-5-5--5-5-|
                                                 
-------------------------|-----------------------------|
-------------------------|-----------------------------|
-------------------------|-----------------------------|
--5--5-5-5--6----3----3--|--3/-5--5--5-5-5--5-5-5--5-5-|
                                                             
------------------------------||----------------------------|
-----------------------------*||----------------------------|
-----------------------------*||----------------------------|
--5--5-5-5--5-5-5--5-5-5--3---||--3----3--3-3-3--3-3-3--3-3-|
                                                              
------------------------------|------------------------------|
------------------------------|------------------------------|
------------------------------|------------------------------|
--3--3-3-3--3-3-3--3-3-3--3-3-|--3--3-3-3--3-3-3--3-3-3--3-3-|
                                                                    
----------------------------|-------------------|------------------|
----------------------------|-------------------|------------------|
----------------------------|-------------------|------------------|
--3--3-3-3--3-3-3--3-3-3----|--5----------------|------------------|

                                                           3x                   
------------------||-------------------|-------------------||------------------|
------------------||*------------------|------------------*||------------------|
------------------||*------------------|------------------*||------------------|
------------------||-------------------|-------------------||------------------|
                                                                     
------------------|------------------|------------------|------------------|
------------------|------------------|------------------|------------------|
------------------|------------------|------------------|------------------|
------------------|------------------|------------------|------------------|
                                                                          
------------------|------------------|------------------||-------------------|
------------------|------------------|------------------||*------------------|
------------------|------------------|------------------||*------------------|
------------------|------------------|------------------||-------------------|

                   3x                                                         
-------------------||------------------|------------------|------------------|
------------------*||------------------|------------------|------------------|
------------------*||------------------|------------------|------------------|
-------------------||------------------|------------------|------------------|
                                                             
-----------------------|-------------------|------------------|
--7--------------------|-------------------|------------------|
-----8----7----5/-3----|-------------------|------------------|
-----------------------|--5----------------|------------------|
                                                               
------------------|-----------------------|--------------------|
------------------|--7--------------------|--------------------|
------------------|-----8-----------------|--------------------|
------------------|----------8----5/-3----|--5--------5--------|
                                                                
---------------------|--------------------|-----------5---------|
-----------7------5--|--------------------|----------------5----|
---------------------|--3--------3--------|------3--------------|
------5--------------|--------------------|---------------------|
                                                       
|---------------------|---------------------|--------------------|
|*--------------------|---------------------|--------------------|
|*--------------------|-----------7------5--|--3--------3--------|
|---5--------5--------|------5--------------|--------------------|
                                                                  
--------------5-------|--------------------|---------------------|
-----------5-----5----|--------------------|---------------------|
------3---------------|--------------------|-----------7------5--|
----------------------|--5--------5--------|------5--------------|
                                                                       
--------------------|--------------5--------||------------------------|
--------------------|-----------5-----5----*||------------------------|
--3--------3--------|------3---------------*||------------------------|
--------------------|-----------------------||--5----5--5--5--5--5----|
                                                                            
------------------------|------------------------|-------------------------|
------------------------|------------------------|-------------------------|
------------------------|------------------------|----------------------3--|
--5--5--5----5--5--5/---|--1----1--1--1--1--1----|--1--1--1----1--1--1-----|
                                                                             
|-------------------------|------------------------|------------------------|
|*------------------------|------------------------|------------------------|
|*------------------------|------------------------|------------------------|
|---5----5--5--5--5--5----|--5--5--5----5--5--5/---|--1----1--1--1--1--1----|

                         2x                                                  
-------------------------||------------------------|------------------------|
------------------------*||------------------------|------------------------|
------------------------*||------------------------|------------------------|
--1--1--1----1--1--1/----||--5----5--5--5--5--5----|--5--5--5----5--5--5/---|
                                                              
------------------------|-------------------------|----------|
------------------------|-------------------------|----------|
------------------------|----------------------3--|----------|
--1----1--1--1--1--1----|--1--1--1----1--1--1-----|----------|
                                                                        
|-------------------|------------------|------------------|------------------|
|*------------------|------------------|------------------|------------------|
|*------------------|------------------|------------------|------------------|
|-------------------|------------------|------------------|------------------|
                                                                      
------------------|------------------|------------------|-------------------||
------------------|------------------|------------------|------------------*||
------------------|------------------|------------------|------------------*||
------------------|------------------|------------------|-------------------||
                                                          
-----------------------------|---------------------------|
-----------------------------|---------------4--6--7--6--|
--4--4-4-4--4--4-4-4--4--4-4-|--4--4--4-4-4--------------|
-----------------------------|---------------------------|
                                                 
-----------------------------|----------------------------|
-----------------------------|----------------------------|
--4--4-4-4--4--4-4-4--4--4-4-|--4--4--4-4-4--4--4--2--2-2-|
-----------------------------|----------------------------|
                                                        
-----------------------------|-------------------------|
-----------------------------|-------------------------|
-----------------------------|-------------------------|
--5--5-5-5--5--5-5-5--5--5-5-|--5--5--5-5-5--5----5----|
                                                     
------------------------|---------------------------|
------------------------|---------------------------|
------------------------|---------------------------|
--2--2-2-2--2-----2-----|--4--4-4-4--4--4--4--4--4--|
                                                          
-----------------------------|---------------------------|
-----------------------------|---------------4--6--7--6--|
--4--4-4-4--4--4-4-4--4--4-4-|--4--4--4-4-4--------------|
-----------------------------|---------------------------|
                                                           
-----------------------------|----------------------------|
-----------------------------|----------------------------|
--4--4-4-4--4--4-4-4--4--4-4-|--4--4--4-4-4--4--4--2--2-2-|
-----------------------------|----------------------------|
                                                   
-----------------------------|-------------------------|
-----------------------------|-------------------------|
-----------------------------|-------------------------|
--5--5-5-5--5--5-5-5--5--5-5-|--5--5--5-5-5--5----5----|
                                                                     
------------------------|---------------------------||--------------------|
------------------------|---------------------------||*-------------------|
------------------------|---------------------------||*-------------------|
--2--2-2-2--2-----2-----|--4--4-4-4--4--4--4--4--4--||---5----------------|
                                                                               
------------------|------------------|--------------------|-------------------|
------------------|------------------|--------------------|-------------------|
------------------|------------------|--------------------|-------------------|
------------------|------------------|----------5----3----|--1----------------|
                                                         
------------------|------------------|---------------------||
------------------|------------------|--------------------*||
------------------|------------------|--------------------*||
------------------|------------------|----------1----3-----||
                                                                            
------------------------|--------------------------|-----------------------|
*-----------------------|--------------------------|-----------------------|
*--0------0-0-0------0--|--0------0-0-0-0--0----0--|--0------0-0-0------0--|
------------------------|--------------------------|-----------------------|
                                                                              
--------------------------|-----------------------|--------------------------|
--------------------------|-----------------------|--------------------------|
--0------0-0-0-0--0----0--|--0------0-0-0------0--|--0------0-0-0-0--0----0--|
--------------------------|-----------------------|--------------------------|
                                                                          
-----------------------|--------------------------|---------------------------|
-----------------------|--------------------------|---------------------------|
--0------0-0-0------0--|--0------0-0-0-0--0----0--|---------------------------|
-----------------------|--------------------------|--0--0-0-0--0--0--0--0--0--|
                                                 
---------------------------|--------------------------|
---------------------------|--------------------------|
---------------------------|--------------------------|
--1/-0--0--0--0--0-0-0--0--|--3--3--3-3-3--1--1----1--|
                                                  
--------------------------|---------------------------|
--------------------------|---------------------------|
--------------------------|---------------------------|
----0--0--0-0-0--0--0--0--|--0--0-0-0--0--0--0--0--0--|
                                                   
---------------------------|--------------------------|
---------------------------|--------------------------|
---------------------------|--------------------------|
--1/-0--0--0--0--0-0-0--0--|--3--3--3-3-3--1--1----1--|
                                                       
---------------------------||-----------------------------|
--------------------------*||*----------------------------|
--------------------------*||*----------------------------|
----0--0--0-0-0--0--0--0---||---5----5--5-5-5--5-5-5--5-5-|
                                                     
-------------------------|-----------------------------|
-------------------------|-----------------------------|
-------------------------|-----------------------------|
--5--5-5-5--6----3----3--|--3/-5--5--5-5-5--5-5-5--5-5-|
                                                            
------------------------------||----------------------------|
-----------------------------*||----------------------------|
-----------------------------*||----------------------------|
--5--5-5-5--5-5-5--5-5-5--3---||--3----3--3-3-3--3-3-3--3-3-|
                                                            
------------------------------|------------------------------|
------------------------------|------------------------------|
------------------------------|------------------------------|
--3--3-3-3--3-3-3--3-3-3--3-3-|--3--3-3-3--3-3-3--3-3-3--3-3-|
                                                        
----------------------------|----------------------------|
----------------------------|----------------------------|
----------------------------|----------------------------|
--3--3-3-3--3-3-3--3-3-3----|--5----5--5-5-5--5-5-5--5-5-|
                                                      
-------------------------|-----------------------------|
-------------------------|-----------------------------|
-------------------------|-----------------------------|
--5--5-5-5--6----3----3--|--3/-5--5--5-5-5--5-5-5--5-5-|
                                                       
-----------------------------|----------------------------|
-----------------------------|----------------------------|
-----------------------------|----------------------------|
--5--5-5-5--5-5-5--5-5-5--3--|--3----3--3-3-3--3-3-3--3-3-|
                                                              
------------------------------|------------------------------|
------------------------------|------------------------------|
------------------------------|------------------------------|
--3--3-3-3--3-3-3--3-3-3--3-3-|--3--3-3-3--3-3-3--3-3-3--3-3-|
                                                       
----------------------------||-----------------------------|
----------------------------||*----------------------------|
----------------------------||*----------------------------|
--3--3-3-3--3-3-3--3-3-3----||---5----5--5-5-5--5-5-5--5-5-|
                                                        
-------------------------|-----------------------------|
-------------------------|-----------------------------|
-------------------------|-----------------------------|
--5--5-5-5--6----3----3--|--3/-5--5--5-5-5--5-5-5--5-5-|
                                                        
------------------------------||----------------------------|
-----------------------------*||----------------------------|
-----------------------------*||----------------------------|
--5--5-5-5--5-5-5--5-5-5--3---||--3----3--3-3-3--3-3-3--3-3-|
                                                              
------------------------------|------------------------------|
------------------------------|------------------------------|
------------------------------|------------------------------|
--3--3-3-3--3-3-3--3-3-3--3-3-|--3--3-3-3--3-3-3--3-3-3--3-3-|
                                                  
----------------------------|----------------------------|
----------------------------|----------------------------|
----------------------------|----------------------------|
--3--3-3-3--3-3-3--3-3-3----|--3----3--3-3-3--3-3-3--3-3-|
                                                       
------------------------------|------------------------------|
------------------------------|------------------------------|
------------------------------|------------------------------|
--3--3-3-3--3-3-3--3-3-3--3-3-|--3--3-3-3--3-3-3--3-3-3--3-3-|
                                                              
----------------------------|-------------------|------------------|
----------------------------|-------------------|------------------|
----------------------------|-------------------|------------------|
--3--3-3-3--3-3-3--3-3-3----|--5----------------|------------------|
                                                                     
------------------|------------------|------------------|------------------|
------------------|------------------|------------------|------------------|
------------------|------------------|------------------|------------------|
------------------|------------------|------------------|------------------|
                                                                            
------------------|------------------|------------------|------------------|
------------------|------------------|------------------|------------------|
------------------|------------------|------------------|------------------|
------------------|------------------|------------------|------------------|
                                       
------------------|------------------||
------------------|------------------||
------------------|------------------||
------------------|------------------||
Composição de Jon Schaffer
Colaboração e revisão:
  • Taino Vieira
30 exibições

0 comentários

Ver todos os comentários

Conseguiu tocar?

0 Tocaram 0 Ainda não

Grave um vídeo tocando The Phantom Opera Ghost e nos envie!

00:00 / 00:00
outros vídeos desta música
repetir qualidade Automático
Outros vídeos desta música
00:00 / 00:00
Automático

Cifra Club Pro

Aproveite o Cifra Club com benefícios exclusivos e sem anúncios
Cifra Club Pro
Aproveite o Cifra Club com benefícios exclusivos e sem anúncios
OK