Cifra Club

Emma

Imagine Dragons

Cifra (violão e guitarra)
Selo Cifra Club: esta cifra foi revisada para atender aos critérios oficiais da nossa Equipe de Qualidade.
tom: D
INTRO

Electric 1
(palm mute with delay)
E|--------------------|
B|------------9-------|
G|----10---10---10----|
D|-88----8---------88-|
A|--------------------|
E|--------------------|

Synth/Electric 3

E|---------------------------|
B|---------------------------|
G|---------------------------|
D|-8/16/18\15\11--8/16/18\15-|
A|---------------------------|
E|---------------------------|

Electric 2
          (strum these notes)
E|-----| |-----|
B|-----| |--6--|
G|--8--| |--8--|
D|--8--| |--8--|
A|--6--| |-----|
E|-----| |-----|

VERSE

INTRO

VERSE

PD-C HORUS

Electric 1

E|-9-------9--------------------|
B|---11------11----9------9-----|
G|------11------11----11-----11-|
D|------------------------------|
A|------------------------------|
E|------------------------------|

CHORUS

Synth/Electric 3

E|---------------------------|
B|---------------------------|
G|---------------------------|
D|-8/16/18\15\11--8/16/18\15-|
A|---------------------------|
E|---------------------------|

Electric 2
          (strum these notes)
E|-----| |-----|
B|-----| |--6--|
G|--8--| |--8--|
D|--8--| |--8--|
A|--6--| |-----|
E|-----| |-----|

VERSE

PD-C HORUS

CHORUS

G  O

Electric 1

E|--------------------------------------------------|
B|-16b-1616-14--------------------------------------|
G|-------------1515-1515151515-13-11-13-11-13-15-11-|
D|--------------------------------------------------|
A|--------------------------------------------------|
E|--------------------------------------------------|

E|------------------------------------------------|
B|------------------------------------------------|
G|------15-13b-------11-10-------13--------15-13b-|
D|----11-------11-13-------13/15-------11---------|
A|--14------------------------------14------------|
E|------------------------------------------------|

E|-----------------------------------|
B|--14-16----------------------------|
G|--------15-13-11----11----11/15-13-|
D|-----------------13----13----------|
A|-----------------------------------|
E|-----------------------------------|

POST
(no music in the beginning)

THEN...

Electric 2
(listen to song for strum pattern)
E|-------------------|
B|-------------------|
G|-11-8-11-8-4-6-4-6-|
D|-11-8-11-8-4-6-4-6-|
A|-9--6-9--6-2-4-2-4-|
E|-------------------|

INTRO

THEN ADD THE PD-C HORUS

THEN ADD...

Electric 1

E|------------------------11/13\11-|
B|-16b-1616-14------11-14----------|
G|-------------1515----------------|
D|---------------------------------|
A|---------------------------------|
E|---------------------------------|
Outros vídeos desta música
    18 exibições
      • ½ Tom
      • A
      • Bb
      • B
      • C
      • Db
      • D
      • Eb
      • E
      • F
      • F#
      • G
      • Ab
    • Adicionar à lista

    Afinação da cifra

    Afinador online

      0 comentários

      Ver todos os comentários

      Conseguiu tocar?

      0Tocaram0Ainda não

      Grave um vídeo tocando Emma e nos envie!

      Toque também

      1. Imagem do artista OneRepublicCounting Stars OneRepublic
      2. Imagem do artista Twenty One PilotsRide Twenty One Pilots
      3. Imagem do artista BastillePompeii Bastille
      4. Imagem do artista American AuthorsBest Day Of My Life American Authors

      Entre para o Cifra Club PRO

      Tenha acesso a benefícios exclusivos no App e no Site

      • Chega de anúncios

      • Badges exclusivas

      • Mais recursos no app do Afinador

      • Atendimento Prioritário

      • Aumente seu limite de lista

      • Ajude a produzir mais conteúdo

      Cifra Club Pro

      Aproveite o Cifra Club com benefícios exclusivos e sem anúncios
      Cifra Club Pro
      Aproveite o Cifra Club com benefícios exclusivos e sem anúncios
      Ops (: Contenido disponible sólo en portugués.
      OK