Cifra Club

Radioactive

Imagine Dragons

Cifra: Acustico (violão e guitarra)
exibições 43.470
Tom: G
Intro: Am  C  G  D

E|-------8--------10-----12-----10--------8-------10------8-8-----| 
B|--8-10---8-10-----8-10----10------8-10----8-10-----8-10-----10--|
G|----------------------------------------------------------------|
D|----------------------------------------------------------------|  (5x)
A|----------------------------------------------------------------|
E|----------------------------------------------------------------|
-
E|------8------8------8------8------8-----------------|
B|---10-----10-----10-----10-----10-------------------|
G|-9------9------9------9------9----------------------|
D|----------------------------------------------------|
A|----------------------------------------------------|
E|----------------------------------------------------|


E|------8------8------8------8--8---8---8-------------|
B|---10-----10-----10-----10----10--10--10------------|
G|-9------9------9------9-------9---9---9-------------|
D|----------------------------------------------------|
A|----------------------------------------------------|
E|----------------------------------------------------|

Am          C            G
I'm waking up to ash and dust
          D                    Am
I wipe my brow and I sweat my rust
             C               G    D
I'm breathing in the chemicals
Am          C            G                 D
I'm breaking in, shaping up, then checking out on the prison bus
Am        C              G
This is it, the apocalypse
G
Whoa

D              Am             C
   I'm waking up, I feel it in my bones
G                  D
Enough to make my systems blow
Am                     C
Welcome to the new age, to the new age
G                      D
Welcome to the new age, to the new age
Am   C     G                D
Whoa, whoa, I'm radioactive, radioactive
Am   C     G                D
Whoa, whoa, I'm radioactive, radioactive

Am           C            G
I raise my flags, and dye my clothes
          D                    Am
It's a revolution, I suppose
              C                  G
We're painted red to fit right in
G
Whoa
Am          C            G                 D
I'm breaking in, shaping up, then checking out on the prison bus
Am        C              G
This is it, the apocalypse
G
Whoa

D              Am             C
   I'm waking up, I feel it in my bones
G                  D
Enough to make my systems blow
Am                     C
Welcome to the new age, to the new age
G                      D
Welcome to the new age, to the new age
Am   C     G                D
Whoa, whoa, I'm radioactive, radioactive
Am   C     G                D
Whoa, whoa, I'm radioactive, radioactive

Am*         C*  G*          D*
All systems go, sun hasn't died
Am*         C*    G*            D*
Deep in my bones, straight from inside

D              Am             C
   I'm waking up, I feel it in my bones
G                  D
Enough to make my systems blow
Acordes para:

    0 comentários

    mostrar mais comentários

    Conseguiu tocar?

    55 tocaram 0 ainda não

    Grave um vídeo tocando Radioactive e mande pra gente!

    00:00 / 00:00
    outros vídeos desta música
    repetir qualidade Automático
    Outros vídeos desta música
    00:00 / 00:00
    Automático
    Capítulos
    • Tocando a música
    • Dicas iniciais
    • Acordes da música
    • Tocando Introdução
    • Ensinando Introdução
    • Ensinando Introdução (Base)
    • Tocando Primeira Parte e Refrão
    • Ensinando ritmo da música
    • Tocando Segunda Parte
    • Ensinando Segunda Parte
    • Encerramento
    • Equipamentos / Erros de gravação
    OK