Cifra Club

Radioactive

Imagine Dragons

Tab de baixo: Simplificada
exibições 335
Verse
G|-------------------------------------------------|
D|---------------------------7----7-7--------------|
A|---------------5----5-5--------------7----7-7----|
E|--7----7-7---------------------------------------|

G|-------------------------------------------------|
D|---------------------------7---------------------|
A|---------------5----5-5--------------------------|
E|--7----7-7---------------------------------------|

G|-------------------------------------------------|
D|---------------------------7----7-7--------------|
A|---------------5----5-5--------------7----7-7----|
E|--7----7-7---------------------------------------|

G|-------------------------------------------------|
D|---------------------------7-----6---------------|
A|---------------5----5-5--------------------------|
E|--7----7-7---------------------------------------|

Chorus
G|-------------------------------------------------|
D|---------------------------7----7-7--------------|
A|-------------5----5-5--------------7---7-5--7-5--|
E|--7----7-7---------------------------------------|

G|-------------------------------------------------|
D|---------------------------7----7-7--6-(x8)------|
A|---------------5----5-5--------------------------|
E|--7----7-7---------------------------------------|

G|-------------------------------------------------|
D|---------------------------7----7-7--------------|
A|-------------5----5-5--------------7---7-5--7-5--|
E|--7----7-7---------------------------------------|

G|-------------------------------------------------|
D|---------------------------7-----6---------------|
A|---------------5----5-5--------------------------|
E|--7----7-7---------------------------------------|

Verse
G|-------------------------------------------------|
D|---------------------------7----7-7--------------|
A|---------------5----5-5--------------7----7-7----|
E|--7----7-7---------------------------------------|

G|-------------------------------------------------|
D|---------------------------7----7-7--------------|
A|---------------5----5-5--------------7----7-7----|
E|--7----7-7---------------------------------------|

Verse
G|-------------------------------------------------|
D|---------------------------7----7-7--------------|
A|---------------5----5-5--------------7----7-7----|
E|--7----7-7---------------------------------------|

G|-------------------------------------------------|
D|---------------------------7-----6---------------|
A|---------------5----5-5--------------------------|
E|--7----7-7---------------------------------------|

Chorus
G|-------------------------------------------------|
D|---------------------------7----7-7--------------|
A|-------------5----5-5--------------7---7-5--7-5--|
E|--7----7-7---------------------------------------|

G|-------------------------------------------------|
D|---------------------------7----7-7--6-(x8)------|
A|---------------5----5-5--------------------------|
E|--7----7-7---------------------------------------|

G|-------------------------------------------------|
D|---------------------------7----7-7--------------|
A|-------------5----5-5--------------7---7-5--7-5--|
E|--7----7-7---------------------------------------|

G|-------------------------------------------------|
D|---------------------------7-----6---------------|
A|---------------5----5-5--------------------------|
E|--7----7-7---------------------------------------|

Chorus
G|-------------------------------------------------|
D|---------------------------7----7-7--------------|
A|-------------5----5-5--------------7---7-5--7-5--|
E|--7----7-7---------------------------------------|

G|-------------------------------------------------|
D|---------------------------7----7-7--6-(x8)------|
A|---------------5----5-5--------------------------|
E|--7----7-7---------------------------------------|

G|-------------------------------------------------|
D|---------------------------7----7-7--------------|
A|-------------5----5-5--------------7---7-5--7-5--|
E|--7----7-7---------------------------------------|

G|-------------------------------------------------|
D|---------------------------7-----6---------------|
A|---------------5----5-5--------------------------|
E|--7----7-7---------------------------------------|
Composição: Alex Da Kid / Imagine Dragons / Josh Mosser Colaboração e revisão:
  • Yago Moraes

0 comentários

mostrar mais comentários

Conseguiu tocar?

0 tocaram 0 ainda não

Grave um vídeo tocando Radioactive e mande pra gente!

00:00 / 00:00
outros vídeos desta música
repetir qualidade Automático
Outros vídeos desta música
00:00 / 00:00
Automático
OK