Cifra Club

Radioactive

Imagine Dragons

Tab de baixo: Principal
exibições 5.455
Intro

Verse 1

G|---------------------------------------------------------------------------|
D|---------------------------------7---7-----7-------------------------------|
A|-----------------5--5--5-5---5-------------------7-7-7-7-7-7-7-7-7-7-7-7---|
E|-7---7-----7---------------------------------------------------------------|

G|---------------------------------------------------------------------------|
D|---------------------------------7--7--7-----------------------------------|
A|-----------------5--5--5-5---5---------------------------------------------|
E|-7-7--7--7--7--------------------------------------------------------------|

G|---------------------------------------------------------------------------|
D|---------------------------------7-7-7-7-7-7-7-----------------------------|
A|-----------------5-5-5---5---5-------------------7777777777777777----------|
E|-7----------7--------------------------------------------------------------|

G|---------------------------------------------------------------------------|
D|---------------------------------777777777-7-7-----------------------------|
A|-----------------5-5-5-5-5---5---------------------------------------------|
E|-7-7-7-7-7-7-7-7-----------------------------------------------------------|

Chorus 1

G|---------------------------------------------------------------------------|
D|---------------------------------7-7-7-7-7-7-7-----------------------------|
A|-2-2-2-2-2---2---5-5-5-5-5---5-------------------7-7-7-5-7---5-------------|
E|---------------------------------------------------------------------------|

G|---------------------------------------------------------------------------|
D|---------------------------------7-7-7-7-7---7-7-6-6-6-6-6-6-6-6-----------|
A|-2-2-2-2-----2---5-5-5-5-----/12\------------------------------------------|
E|---------------------------------------------------------------------------|

G|---------------------------------------------------------------------------|
D|---------------------------------7-7-7-7-7---7-----------------------------|
A|-2-2-2-2-2---2---5-5-5-5-5---5-------------------7-7-7-5-7---5-------------|
E|---------------------------------------------------------------------------|

G|---------------------------------------------------------------------------|
D|---------------------------------------------------------------------------|
A|-2-2-2-2-----2---5-5-5-5-5---/12\------------------------------------------|
E|---------------------------------------------------------------------------|

Verse 2

G|---------------------------------------------------------------------------|
D|---------------------------------7---7-----7-------------------------------|
A|-----------------5--5--5-5---5-------------------7-7-7-7-7-7-7-7-7-7-7-7---|
E|-7---7-----7---------------------------------------------------------------|

G|---------------------------------------------------------------------------|
D|---------------------------------7--7--7-7---7-----------------------------|
A|-----------------5---5-------5-------------------7--7--7-7---7-------------|
E|-7-7--7--7---7-------------------------------------------------------------|

G|---------------------------------------------------------------------------|
D|---------------------------------7-7-7-7-7-7-7-----------------------------|
A|-----------------5-5-5---5---5-------------------7777777777777777----------|
E|-7----------7--------------------------------------------------------------|

G|---------------------------------------------------------------------------|
D|---------------------------------777777777-7-7-----------------------------|
A|-----------------5-5-5-5-5---5---------------------------------------------|
E|-7-7-7-7-7-7-7-7-----------------------------------------------------------|

Chorus 2
  
   Same as Chorus 1

Bridge

   No Bass

Chorus 3

G|---------------------------------------------------------------------------|
D|---------------------------------7-7-7-7-7-7-7-----------------------------|
A|-2-2-2-2-2---2---5-5-5-5-5---5-------------------7-7-7-5-7---5-------------|
E|---------------------------------------------------------------------------|

G|---------------------------------------------------------------------------|
D|---------------------------------7-7-7-7-7---7-7-6-6-6-6-6-6-6-6-----------|
A|-2-2-2-2-----2---5-5-5-5-----/12\------------------------------------------|
E|---------------------------------------------------------------------------|

G|---------------------------------------------------------------------------|
D|---------------------------------7-7-7-7-7---7-----------------------------|
A|-2-2-2-2-2---2---5-5-5-5-5---/12\----------------7-7-7-5-7---5-------------|
E|---------------------------------------------------------------------------|

G|---------------------------------------------------------------------------|
D|---------------------------------------------------------------------------|
A|-2-2-2-2-----2---5-5-5-5-5---/12\------------------------------------------|
E|---------------------------------------------------------------------------|
Composição: Alex Da Kid / Imagine Dragons / Josh Mosser Colaboração e revisão:
  • Bruna Caetano

0 comentários

mostrar mais comentários

Conseguiu tocar?

5 tocaram 0 ainda não

Grave um vídeo tocando Radioactive e mande pra gente!

00:00 / 00:00
outros vídeos desta música
repetir qualidade Automático
Outros vídeos desta música
00:00 / 00:00
Automático
OK