Cifra Club

Blashyrkh

Immortal

Cifra: Principal (violão e guitarra)
tom: A
Riff 1
|-------------------------------------------------------------------------------------|
|-------------------------------------------------------------------------------------|
|-------------------------------------------------------------------------------------|
|------------55555555----------77777777----------5555----5555----------555544445544---|
|---22222222-33333333-22222222-55555555-22222222-33335555-----22222222----------------|
|---00000000----------00000000----------00000000--------------00000000----------------|

Riff 2
|----------------------------------|
|----------------------------------|
|---------4--------4--------4--5---|
|-------2--------2--------2----3---|
|-----2--------2--------2------3---|
|---0--------0--------0------------|

Riff 3
|--------------------------------------|
|--------------------------------------|
|--------------------------------------|
|---99999999888888889999999910109977---| (10! Not 1 & 0)
|--------------------------------------|
|--------------------------------------|

Riff 4
|-------------------------------------------------|
|-------------------------------------------------|
|-------------------------------------------------|
|---99999999-1010101010101010-77777777-99999999---| (10! Not 1 & 0)
|---77777777-8-8-8-8-8-8-8-8--55555555-77777777---|
|-------------------------------------------------|

|-------------------------------------------------------------------|
|-------------------------------------------------------------------|
|-------------------------------------------------------------------|
|---99999999-1010101010101010-77777777-12121212-10101010-99999999---| (10! Not 1 & 0)
|---77777777-8-8-8-8-8-8-8-8--55555555-10101010-8-8-8-8--77777777---| (12! Not 1 & 2)
|-------------------------------------------------------------------|

Riff 5
|---------------------------------|
|---------------------------------|
|---------------------------------|
|---444444-222222-5555-77777777---| (This part is a bit different, but I dont know how)
|---222222-000000-3333-55555555---|
|---------------------------------|

Riff 6
|---------------------------------------------------------|
|---------------------------------------------------------|
|---------4-----4---------2-----2---------4-----4---------|
|-------2---2-----2-----2---2-----------2---2-----2-------|
|-----2-------2-------2-------2---2---2-------2-------2---|
|---0---------------0---------------0---------------0-----|

Synthesizer (arranged for guitar)

        | 1,2 | 3,4             |
|-------------|-----------------|
|-------------|-----------------|
|-------------|-----------------|
|-------------|---12~~11~~7~~---|
|---7~~~~2~~~~|---10~~9~~~5~~---|
|---5~~~~0~~~~|-----------------|


Riff 1 x 2 Distorted 
Riff 2 x 4 Clean
Riff 3 x 2 Distorted
Riff 4 x 1 Distorted
Riff 3 x 2 Distorted
Riff 4 x 1 Distorted
Riff 1 x 2 Distorted
Riff 3 x 2 Distorted
Riff 4 x 2 Distorted
Riff 4 x ½ Distorted
Riff 5 x 4 Distorted 
E (Distorted)
Riff 6 x 6 (plus a second guitar(?))(Little break after 3rd and 4th time)
Synthesizer x 1
Riff 1 (with solo(?)) x 2 Distorted
E (Distorted)
00:00 / 00:00
Outros vídeos desta música
Repetir
Outros vídeos desta música
Composição de Demonaz
1.118 exibições
    • ½ Tom
    • A
    • Bb
    • B
    • C
    • Db
    • D
    • Eb
    • E
    • F
    • F#
    • G
    • Ab
  • Adicionar à lista

    0 comentários

    Ver todos os comentários

    Conseguiu tocar?

    0 Tocaram 0 Ainda não

    Grave um vídeo tocando Blashyrkh e nos envie!

    Entre para oCifra Club PRO

    Tenha acesso a benefícios exclusivos no App e no Site

    • Chega de anúncios

    • Prioridade de compra em lançamentos

    • Mais recursos no app do Afinador

    • Atendimento Prioritário

    • Descontos nos produtos Cifra Club

    • Ajude a produzir mais conteúdo

    00:00 / 00:00

    Cifra Club Pro

    Aproveite o Cifra Club com benefícios exclusivos e sem anúncios
    Cifra Club Pro
    Aproveite o Cifra Club com benefícios exclusivos e sem anúncios
    OK