Cifra Club

Aprenda

Mortal Kombat Theme

Immortals

Cifra: Principal (violão e guitarra)
tom: F

--------------------------------------------------|
--------3-5-3----5-8-5-------0-1-3-1--------------|
-2-2-5-2-2----5-5-5-5-5---0-0-0-0---------2-5-5-4-|  x2
---------------------------------------3-3-3-3----|
--------------------------------------------------|
--------------------------------------------------|

------------------------------------------------------------------------------|
------------------------------------------------------------------------------|
-----------5-----------------------5------------------------------------------|
-7-7-7-7-5-5-7-7-7-7-5---7-7-7-7-5-5-7-7-7-7--7-------------------------------|
-7-7-7-7-5-3-7-7-7-7-5---7-7-7-7-5-3-7-7-7-7--7-------------------------------|
-5-5-5-5-3---5-5-5-5-3-0-5-5-5-5-3---5-5-5-0p5--------------------------------|

 the rest youll have too figure out for your self.  sorry ='(
Colaboração e revisão:
  • Dário Silva
  • H Kopschitz
52.043 exibições
    • ½ Tom
    • A
    • Bb
    • B
    • C
    • Db
    • D
    • Eb
    • E
    • F
    • F#
    • G
    • Ab
  • Adicionar à lista

    0 comentários

    Ver todos os comentários

    Conseguiu tocar?

    12 Tocaram 1 Ainda não

    Grave um vídeo tocando Mortal Kombat Theme e nos envie!

    00:00 / 00:00
    outros vídeos desta música
    repetir qualidade Automático
    Outros vídeos desta música
    00:00 / 00:00
    Automático

    Cifra Club Pro

    Aproveite o Cifra Club com benefícios exclusivos e sem anúncios
    Cifra Club Pro
    Aproveite o Cifra Club com benefícios exclusivos e sem anúncios
    OK