Cifra Club

Come Clarity Intro

In Flames

Cifra: Principal (violão e guitarra)
Selo Cifra Club: esta cifra foi revisada para atender aos critérios oficiais da nossa Equipe de Qualidade.
tom: Db

Listen to the song for exact timing.

C |-------0~---------------1-0-----------------------------------------0h1-|
G |-----3-----3----------3-----3------------1------1-----------------3-----|
Eb|---2---------2------2---------2--------0------0---0--------0----2-------|
Bb|-0-------------0-0~-------------0---3~-----2~-------2----0----0~--------|
F |-------------------------------------------------------3~---------------|
C |------------------------------------------------------------------------|

C |------0~---------------1-0-------------------------------------------1~-|
G |----3-----3----------3-----3------------1------1-------------------1----|
Eb|--2---------2------2---------2--------0------0---0--------0------3------|
Bb|0-------------0-0~-------------0---3~-----2~-------2----0------3--------|
F |-----------------------------------------------------3~------1~---------|
C |------------------------------------------------------------------------|

   Guitar II plays this over the above riff at 0:29-0:36

C |-----------------------------------------------------------------------|
G |-----------------------------------------------------------------------|
Eb|----7-------/10--9---7--5-7p5------7-5-7-9~~---------------------------|
Bb|------7~~---------------------8~~--------------------------------------|
F |-----------------------------------------------------------------------|
C |-----------------------------------------------------------------------|

   And 0:34-0:41

C |-----------------------------------------------------------------------|
G |----------------------------------------------------8-10-11~-10-8------|
Eb|----9-10-7----------10--9--7-5----/7-9-10~-9-7--------------------10---|
Bb|------------7~~--------------------------------10----------------------|
F |-----------------------------------------------------------------------|
C |-----------------------------------------------------------------------|

P.S. Dan likes dutes.
Outros vídeos desta música
    3.244 exibições
      • ½ Tom
      • A
      • Bb
      • B
      • C
      • Db
      • D
      • Eb
      • E
      • F
      • F#
      • G
      • Ab
    • Adicionar à lista

    Afinação da cifra

    Afinador online

      0 comentários

      Ver todos os comentários

      Entre para o Cifra Club PRO

      Tenha acesso a benefícios exclusivos no App e no Site

      • Chega de anúncios

      • Mais recursos no app do Afinador

      • Atendimento Prioritário

      • Aumente seu limite de lista

      • Ajude a produzir mais conteúdo

      Cifra Club Pro

      Aproveite o Cifra Club com benefícios exclusivos e sem anúncios
      Cifra Club Pro
      Aproveite o Cifra Club com benefícios exclusivos e sem anúncios
      OK