Cifra Club

Agoraphobia

Incubus

Cifra: Principal
exibições 9.621
Tom: G
Transcribed by: Thiago Augusto


Notes:
This song is very difficult to tab, because the guitar has a soft distortion and the notes don't sound clear.
But here's my best effort.. hope you like it...
Corrections are welcome! You'll find the song structure at the end of the tab...
Listen to the song for the correct timing.

Tuning: DADGBE

Riff 1:
------------------------------------------------------------------------|
---0-----------------0------------------0----------------0--------------|
-----2-----------------2------------------2----------------2------------|
-------------3-3------------3-3-4-4--------------3-3-------------4-4-3--|
--------3--3-3-3---------3--3-3-4-4---------3--3-3-3---------3-3-4-4-3--|
-0------3--3-3-3---0-----3--3-3-4-4---0-----3--3-3-3---0-----3-3-4-4-3--|

Riff 2:
--------------------------------|
--------------------------------|
--------------------------2---2-|
-----3-------3-------3----3---3-|
---5-------5-------5------------|
-0-----3-------3-0-----3----3---|

Riff 2a:
-----------------------------------|
-----------------------------------|
-----------------------------------|
-----3-------3-------3----4-4------|
---5-------5-------5------4-4-3----|
-0-----3-------3-0-----3--4-4-3----|


Riff 3 (not quite sure about this, but sounds ok):
-----3------3--------3-------3--------3-----3--------3-----3---|
---1------1--------1-------1--------1-----1--------1-----1-----|
---------------------------------------------------------------|
-------1-------1-3------1------1-3-----1------1-3------1-----1-| 
-3-------------------------------------------------------------|
---------------------------------------------------------------| 

Riff 3a:
-----3------3--------3-------3--------3-----3--------------------|
---1------1--------1-------1--------1-----1----------------------|
-----------------------------------------------------------------|
-------1-------1-3------1------1-3-----1------1--3-3-3-3-3-3-3-3-|
-3-----------------------------------------------3-3-3-3-3-3-3-3-|
-------------------------------------------------3-3-3-3-3-3-3-3-|



Riff 4:
--------------------------------------------------------------------|
--------------------------------------------------------------------|
-----------0-------------0------------------0--------------2--------|
-----0---1-------3-0-------0----------0---1-------3-0--------4---0--|
---5---1-----0-1-----1-------1-0----5---1-----0-1------1-------0----|
-5---------------------1----------5----------------------0----------|

Riff 4a:
----------------------------------------------------------|
----------------------------------------------------------| 
-----------0-------------0------------------0-------------|
-----0---1-------3-0-------0----------0---1-------3-0--1--|
---5---1-----0-1-----1-------1-0----5---1-----0-1------1--|
-5---------------------1----------5--------------------1--|

Riff 4b:
---------------------------------------------------------------|
---------------------------------------------------------------|
-----------0-------------0------------------0------------------|
-----0---1-------3-0-------0----------0---1-------3-0----0--0--|
---5---1-----0-1-----1-------1-0----5---1-----0-1--------0--0--| 
-5---------------------1----------5----------------------0--0--| 

Riff 4c:
------------------------------------------------------------|
------------------------------------------------------------| 
-----------0-------------0------------------0---------------|
-----0---1-------3-0-------0----------0---1-------3-0--1--1-|
---5---1-----0-1-----1-------1-0----5---1-----0-1------1--1-|
-5---------------------1----------5--------------------1--1-|
                                                                             
Riff 5 (my best guessings here... very difficult to listen):
------------------------------------------------------------------------------|
------------------------------------------------------------------------------|
-----------8------------------------------------------------------------------|
-12---12---8--10--8--10--8----10--8-10---10-10-8-10-10-8-10-8--1-1-0-1-1-0-1--|
--8-8--8-8-8---6--6---6--6--6--6--6--6---10-10-8-10-10-8-10-8--1-1-0-1-1-0-1--|
--8-8--8-8-8---6--6---6--6--6--6--6--6---10-10-8-10-10-8-10-8--1-1-0-1-1-0-1--|
                                                                              
Riff 5a:
--------------------------------------------------------------------------------------|
--------------------------------------------------------------------------------------|
-----------8--------------------------------------------------------------------------|
-12---12---8--10--8--10--8----10--8-10---10-10-8-10-10-8-10-8--10--8--10--8-----8--8--|
--8-8--8-8-8---6--6---6--6--6--6--6--6---10-10-8-10-10-8-10-8---6--6---6--6--6--6--6--|
--8-8--8-8-8---6--6---6--6--6--6--6--6---10-10-8-10-10-8-10-8---6--6---6--6--6--6--6--|

Riff 5b:
---------------------------------------------------------------------------------|
---------------------------------------------------------------------------------|
-----------8---------------------------------------------------------------------|
-12---12---8--10--8--10--8----10--8-10-------------------------------------------|
--8-8--8-8-8---6--6---6--6--6--6--6--6---13-11-10-10---8-10--10-10-10-10--10-10--|
--8-8--8-8-8---6--6---6--6--6--6--6--6---10-10-10-10--10-10--10-10-10-10--10-10--|
                                                                              
Riff 5c:
---------------------------------------------------------------|
---------------------------------------------------------------|
-----------8---------------------------------------------------|
-12---12---8--10--8--10--8----10--8-10---10-10-8-10-10-8-10-8--|
--8-8--8-8-8---6--6---6--6--6--6--6--6---10-10-8-10-10-8-10-8--|
--8-8--8-8-8---6--6---6--6--6--6--6--6---10-10-8-10-10-8-10-8--|

Riff 6:
----------|
----------|
-5--5--5--|
-4--4--4--|
----------|
-6--6--6--|

Fill 1:
-----------------|
----------6-8-9--|
---5-7-8---------|
-8---------------|
-----------------|
-----------------|

Fill 2:
--------|
--------|
-5-7-8--|
--------|
--------|
--------|

Riff 7:
--------------------------------------|
--------------------------------------|
---------------1----------------------|
-5-5-3-5-5-3-5-1--6-6-6-6---6-6-6--3--|
-1-1-1-1-1-1-1-1--6-6-4---4-4-6-4--3--|
-1-1-1-1-1-1-1-1-------------------3--|

Song structure:
Intro/Verse:
Riff 1 (3x)
Riff 2 (1x)
Riff 2a (1x)
Riff 2 (2x)

Bridge:
Riff 3 (1x)
Riff 3a (1x)

Chorus:
Riff 4 (1x)
Riff 4a (1x)

Verse:
Riff 1 (2x)
Riff 2 (1x)
Riff 2a (1x)
Riff 2 (3x)

Bridge:
Riff 3 (1x)
Riff 3a (1x)

Chorus:
Riff 4 (1x)
Riff 4b (1x)

Instrumental/Oohs:
Riff 5 (1x)
Riff 5a (1x)
Riff 5b (1x)
Riff 5c (1x)
Riff 6 (3x)
Riff 7 (1x)

Chorus/Ending:
Riff 4 (4x)
Riff 4c (1x)
Acordes para:

    0 comentários

      mostrar mais comentários

      Conseguiu tocar?

      0tocaram0ainda não

      Grave um vídeo tocando Agoraphobia e mande pra gente!

      00:00 / 00:00
      outros vídeos desta música
      repetirqualidadeautomática
      Outro vídeos desta música
        00:00 / 00:00
        automática
        OK