Cifra Club

Calgone

Incubus

Cifra: Principal
exibições 1.314
Tom: D
Intro

E|---------------------------------
B|---2--2--2--2--2----3--3--3--3---
G|----2--2--2--2--2----3--3--3--3--
D|-----3--3--3--3--3----4--4--4--4-
A|---------------------------------
E|---------------------------------


Riff da guitarra com efeito flanger/phaser 

E|---4/-5-/6/-7/8/9///
B|---3/-4-/5/-6/7/8///
G|---1/-2-/3/-4/5/6///
D|------------------
A|------------------
E|------------------


Escute a música para pegar o ritmo.
 
Verso

E|---------------------------------------
B|---------------------------------------
G|-------------5-------------------------
D|---2--2-2--4-5-4-2-4--2--2-2--4-5-4-2-4
A|---2--2-2--4-3-4-2-4--2--2-2--4-5-4-2-4
E|---0--0-0--2-3-2-0-2--0--0-0--2-3-2-0-2


Depois do chorus, toque duas vezes essas cordas
e|-20\-
B|-19\-
G|-17\-

Segunda Parte do Verso

E|------------(6)
B|-------------5
G|---333h4/5/6-6
D|-------------8
A|--------------
E|--------------




Com phaser/delay
E|-------
B|-------
G|---3~~3
D|---8~~8
Chorus 2x

G|-----4-4-------2--4-4---------4-4-------2--4-4--------
D|-----4-4-4-5-4-2--4-4-4-5-4---4-4-4-5-4-2--4-4-4-5-4-2
A|-----2-2-4-5-4-0--2-2-4-5-4---2-2-4-5-4-0--2-2-4-5-4-2
E|-0-2/2-2-2-3-2-0--2-2-2-3-2---2-2-2-3-2-0--2-2-2-3-2-0

          Pm...        Pm.         Pm...        Pm

Depois com fast phaser

e|--6666-6666
B|--5555-5555
G|--3333-3333
Acordes para:

    0 comentários

      mostrar mais comentários

      Conseguiu tocar?

      0tocaram0ainda não

      Grave um vídeo tocando Calgone e mande pra gente!

      00:00 / 00:00
      outros vídeos desta música
      repetirqualidadeautomática
      Outro vídeos desta música
        00:00 / 00:00
        automática
        OK