Cifra Club

Dig

Incubus

Cifra: Principal
exibições 70.671
Tom: E
*solo & correct chorus

 Intro (Slight Delay)
|----------16-(16)-------------------16-(16)----------| 
|----16------------16----16----16------------16----16-| 
|-----------------------------------------------------| 
|-14----14------------14----14----14------------14----| 
|-----------------------------------------------------| 
|-----------------------------------------------------| 
 
|----------16-(16)-------------------16-(16)-----------| 
|----14------------14----14----14------------14----14--| 
|------------------------------------------------------| 
|-16----16------------16-------------------------------| 
|---------------------------16----16------------16-----| 
|------------------------------------------------------| 
 
|----------16-(16)-------------------16-(16)----------| 
|----16------------16----16----16------------16----16-| 
|-----------------------------------------------------| 
|-14----14------------14----14----14------------14----| 
|-----------------------------------------------------| 
|-----------------------------------------------------| 
|(Acoustic)
|-----------0--(0)--0-----0-----------0--(0)--0-----0-| 
|-----------0--(0)--0-----0-----------0--(0)--0-----0-| 
|--1-----1--1--(1)--1--1--1--1-----1--1--(1)--1--1--1-| 
|--2-----2--2--(2)--2--2--2--2-----2--2--(2)--2--2--2-| 
|--2-----2-------------2-----2-----2-------------2----| 
|--0-----0-------------0-----0-----0-------------0----| 
 
|----------16-(16)-------------------18p16----------|| 
|----14------------14----14----14-------------------|| 
|---------------------------------------------------|| 
|-16----16------------16----------------------------|| 
|---------------------------16----16--------16-16---|| 
|---------------------------------------------------|| 
| 
|-----------2--(2)--2-----2-----------4-(4)--4----4-|| 
|-----------2--(2)--2-----2-----------5-(5)--5----5-|| 
|--3-----3--3--(3)--3--3--3--6-----6--6-(6)--6--6-6-|| 
|--4-----4--4--(4)--4--4--4--6-----6--6-(6)--6--6-6-|| 
|--4-----4-------------4-----4-----4------------4---|| 
|--2-----2-------------2----------------------------|| 


  Verse
||-----------16-(16)-------------------16-(16)----------| 
||o----16------------16----16----16------------16----16-| 
||------------------------------------------------------| 
||--14----14------------14----14----14------------14----| 
||o-----------------------------------------------------| 
||------------------------------------------------------| 
|        
||------------0--(0)--0-----0-----------0--(0)--0-----0-| 
||o-----------0--(0)--0-----0-----------0--(0)--0-----0-| 
||---1-----1--1--(1)--1--1--1--1-----1--1--(1)--1--1--1-| 
||---2-----2--2--(2)--2--2--2--2-----2--2--(2)--2--2--2-| 
||o--2-----2-------------2-----2-----2-------------2----| 
||---0-----0-------------0-----0-----0-------------0----| 
 
|----------16-(16)-------------------16-(16)------------|| 
|----14------------14----14----14------------14----14--o|| 
|-------------------------------------------------------|| 
|-16----16------------16--------------------------------|| 
|---------------------------16----16------------16-----o|| 
|-------------------------------------------------------|| 
| 
|-----------2--(2)--2-----2-----------4--(4)--4-----4---|| 
|-----------2--(2)--2-----2-----------5--(5)--5-----5--o|| 
|--3-----3--3--(3)--3--3--3--6-----6--6--(6)--6--6--6---|| 
|--4-----4--4--(4)--4--4--4--6-----6--6--(6)--6--6--6---|| 
|--4-----4-------------4-----4-----4-------------4-----o|| 
|--2-----2-------------2--------------------------------|| 


 Chorus 
|-----------------------------------------------| 
|----11---------11---------11----11----11-------| 
|-13----13-(13)---------------------------------| 
|------------------13-(13)----13----13----13-11-| 
|-----------------------------------------------| 
|-----------------------------------------------| 
| 
|--0--0--0--(0)--0------------------------------| 
|--0--0--0--(0)--0--4--(4)--4--4--4--4-----4--4-| 
|--1--1--1--(1)--1--4--(4)--4--4--4--4-----4--4-| 
|--2--2--2--(2)--2--4--(4)--4--4--4--4-----4--4-| 
|--2--2--2--(2)--2--2--(2)--2--2--2--2-----2--2-| 
|--0--0--0--(0)--0------------------------------| 
 
|---------------------------------------------| 
|-11----11-(11)/-16-----16-----------16-16----| 
|----------------------------18-(18)-------18-| 
|----11-------------18------------------------| 
|---------------------------------------------| 
|---------------------------------------------| 
| 
|--2--2--2--(2)-2--0-(0)--0-0--0---0------0--0-| 
|--2--2--2--(2)-2--0-(0)--0-0--0---0------0--0-| 
|--3--3--3--(3)-3--1-(1)--1-1--1---1------1--1-| 
|--4--4--4--(4)-4--2-(2)--2-2--2---2------2--2-| 
|--4--4--4--(4)-4--2-(2)--2-2--2---2------2--2-| 
|--2--2--2--(2)-2--0-(0)--0-0--0---0------0--0-| 
 
|--------------------------------------------| 
|----11--------11--------11---------11----11-| 
|-13----13-13--------------------------------| 
|-----------------13-13-----13---13----13----| 
|--------------------------------------------| 
|--------------------------------------------| 
| 
|--0--0--0-(0)--0----------------------------| 
|--0--0--0-(0)--0--4-(4)--4--4-4--4-----4--4-| 
|--1--1--1-(1)--1--4-(4)--4--4-4--4-----4--4-| 
|--2--2--2-(2)--2--4-(4)--4--4-4--4-----4--4-| 
|--2--2--2-(2)--2--2-(2)--2--2-2--2-----2--2-| 
|--0--0--0-(0)--0----------------------------| 
 
|-----------------------------------| 
|----14--------14-------------------| 
|-----------------------------------| 
|-11----11-11-----4--8--6-6\4-4-4-4-| 
|-----------------------------------| 
|-----------------------------------| 
| 
|--0--0--0-(0)--0-2-(2)-2-2-2-2-2-2-| 
|--0--0--0-(0)--0-2-(2)-2-2-2-2-2-2-| 
|--1--1--1-(1)--1-3-(3)-3-3-3-3-3-3-| 
|--2--2--2-(2)--2-4-(4)-4-4-4-4-4-4-| 
|--2--2--2-(2)--2-4-(4)-4-4-4-4-4-4-| 
|--0--0--0-(0)--0-2-(2)-2-2-2-2-2-2-| 
 
|--------------------------------------------| 
|----11--------11--------11---------11-------| 
|-13----13-13--------------------------------| 
|-----------------13-13-----13---13----13-11-| 
|--------------------------------------------| 
|--------------------------------------------| 
| 
|--0--0--0-(0)--0----------------------------| 
|--0--0--0-(0)--0--4-(4)--4--4-4--4-----4--4-| 
|--1--1--1-(1)--1--4-(4)--4--4-4--4-----4--4-| 
|--2--2--2-(2)--2--4-(4)--4--4-4--4-----4--4-| 
|--2--2--2-(2)--2--2-(2)--2--2-2--2-----2--2-| 
|--0--0--0-(0)--0----------------------------| 
 
|------------------------12-----11---9----| 
|-11----11-(11)---12-12-----9------9---11-| 
|-----------------------------9-----------| 
|----11-----------------------------------| 
|-----------------------------------------| 
|-----------------------------------------| 
| 
|--2--2--2--(2)-2--4-(4)--4-4-4--4---4--4-| 
|--2--2--2--(2)-2--5-(5)--5-5-5--5---5--5-| 
|--3--3--3--(3)-3--4-(4)--4-4-4--4---4--4-| 
|--4--4--4--(4)-4--6-(6)--6-6-6--6---6--6-| 
|--4--4--4--(4)-4--4-(4)--4-4-4--4---4--4-| 
|--2--2--2--(2)-2-------------------------| 
 
|-----------------------------------------------| 
|----11--------11----11-----11---------11-12-12-| 
|-13----13-13-----------------------------------| 
|-----------------13----13-----13---13----------| 
|-----------------------------------------------| 
|-----------------------------------------------| 
| 
|--0--0--0-(0)--0-------------------------------| 
|--0--0--0-(0)--0--4----(4)--4--4-4--4-----4--4-| 
|--1--1--1-(1)--1--4----(4)--4--4-4--4-----4--4-| 
|--2--2--2-(2)--2--4----(4)--4--4-4--4-----4--4-| 
|--2--2--2-(2)--2--2----(2)--2--2-2--2-----2--2-| 
|--0--0--0-(0)--0-------------------------------| 
 
|-14-------14---------------12-------12----12-----|| 
|----12-12----12--12-11-11-----11-11----11----11--|| 
|-------------------------------------------------|| 
|-------------------------------------------------|| 
|-------------------------------------------------|| 
|-------------------------------------------------|| 
| 
|--0-----0--0-(0)--0--2-(2)--2--2--2--2-----2--2--|| 
|--0-----0--0-(0)--0--2-(2)--2--2--2--2-----2--2--|| 
|--1-----1--1-(1)--1--3-(3)--3--3--3--3-----3--3--|| 
|--2-----2--2-(2)--2--4-(4)--4--4--4--4-----4--4--|| 
|--2-----2--2-(2)--2--4-(4)--4--4--4--4-----4--4--|| 
|--0-----0--0-(0)--0--2-(2)--2--2--2--2-----2--2--|| 


 Pre-Verse 
|----------16-(16)-------------------16-(16)----------| 
|----16------------16----16----16------------16----16-| 
|-----------------------------------------------------| 
|-14----14------------14----14----14------------14----| 
|-----------------------------------------------------| 
|-----------------------------------------------------| 
| 
|-----------0--(0)--0-----0-----------0--(0)--0-----0-| 
|-----------0--(0)--0-----0-----------0--(0)--0-----0-| 
|--1-----1--1--(1)--1--1--1--1-----1--1--(1)--1--1--1-| 
|--2-----2--2--(2)--2--2--2--2-----2--2--(2)--2--2--2-| 
|--2-----2-------------2-----2-----2-------------2----| 
|--0-----0-------------0-----0-----0-------------0----| 
 
|----------16-(16)-------------------16-(16)----------| 
|----14------------14----14----14------------14----14-| 
|-----------------------------------------------------| 
|-16----16------------16------------------------------| 
|---------------------------16----16------------16----| 
|-----------------------------------------------------| 
| 
|-----------2--(2)--2-----2-----------4--(4)--4-----4-| 
|-----------2--(2)--2-----2-----------5--(5)--5-----5-| 
|--3-----3--3--(3)--3--3--3--6-----6--6--(6)--6--6--6-| 
|--4-----4--4--(4)--4--4--4--6-----6--6--(6)--6--6--6-| 
|--4-----4-------------4-----4-----4-------------4----| 
|--2-----2-------------2------------------------------| 
 
|----------16-(16)-------------------16-(16)----------| 
|----16------------16----16----16------------16----16-| 
|-----------------------------------------------------| 
|-14----14------------14----14----14------------14----| 
|-----------------------------------------------------| 
|-----------------------------------------------------| 
| 
|-----------0--(0)--0-----0-----------0--(0)--0-----0-| 
|-----------0--(0)--0-----0-----------0--(0)--0-----0-| 
|--1-----1--1--(1)--1--1--1--1-----1--1--(1)--1--1--1-| 
|--2-----2--2--(2)--2--2--2--2-----2--2--(2)--2--2--2-| 
|--2-----2-------------2-----2-----2-------------2----| 
|--0-----0-------------0-----0-----0-------------0----| 
 
|----------16-(16)-------------------18p16----------|| 
|----14------------14----14----14-------------------|| 
|---------------------------------------------------|| 
|-16----16------------16----------------------------|| 
|---------------------------16----16--------16-16---|| 
|---------------------------------------------------|| 
| 
|-----------2--(2)--2-----2-----------4-(4)--4----4-|| 
|-----------2--(2)--2-----2-----------5-(5)--5----5-|| 
|--3-----3--3--(3)--3--3--3--6-----6--6-(6)--6--6-6-|| 
|--4-----4--4--(4)--4--4--4--6-----6--6-(6)--6--6-6-|| 
|--4-----4-------------4-----4-----4------------4---|| 
|--2-----2-------------2----------------------------|| 


  Verse 
||-----------16-(16)-------------------16-(16)----------| 
||o----16------------16----16----16------------16----16-| 
||------------------------------------------------------| 
||--14----14------------14----14----14------------14----| 
||o-----------------------------------------------------| 
||------------------------------------------------------| 
| 
||------------0--(0)--0-----0-----------0--(0)--0-----0-| 
||o-----------0--(0)--0-----0-----------0--(0)--0-----0-| 
||---1-----1--1--(1)--1--1--1--1-----1--1--(1)--1--1--1-| 
||---2-----2--2--(2)--2--2--2--2-----2--2--(2)--2--2--2-| 
||o--2-----2-------------2-----2-----2-------------2----| 
||---0-----0-------------0-----0-----0-------------0----| 
 
|----------16-(16)-------------------16-(16)------------|| 
|----14------------14----14----14------------14----14--o|| 
|-------------------------------------------------------|| 
|-16----16------------16--------------------------------|| 
|---------------------------16----16------------16-----o|| 
|-------------------------------------------------------|| 
| 
|-----------2--(2)--2-----2-----------4--(4)--4-----4---|| 
|-----------2--(2)--2-----2-----------5--(5)--5-----5--o|| 
|--3-----3--3--(3)--3--3--3--6-----6--6--(6)--6--6--6---|| 
|--4-----4--4--(4)--4--4--4--6-----6--6--(6)--6--6--6---|| 
|--4-----4-------------4-----4-----4-------------4-----o|| 
|--2-----2-------------2--------------------------------|| 
 
|----------16-(16)-------------------16-(16)----------| 
|----16------------16----16----16------------16----16-| 
|-----------------------------------------------------| 
|-14----14------------14----14----14------------14----| 
|-----------------------------------------------------| 
|-----------------------------------------------------| 
| 
|-----------0--(0)--0-----0-----------0--(0)--0-----0-| 
|-----------0--(0)--0-----0-----------0--(0)--0-----0-| 
|--1-----1--1--(1)--1--1--1--1-----1--1--(1)--1--1--1-| 
|--2-----2--2--(2)--2--2--2--2-----2--2--(2)--2--2--2-| 
|--2-----2-------------2-----2-----2-------------2----| 
|--0-----0-------------0-----0-----0-------------0----| 
 
|----------16-(16)-------------------16-(16)------------|| 
|----14------------14----14----14------------14----14---|| 
|-------------------------------------------------------|| 
|-16----16------------16--------------------------------|| 
|---------------------------16----16------------16------|| 
|-------------------------------------------------------|| 
| 
|-----------2--(2)--2-----2-----------4--(4)--4-----4---|| 
|-----------2--(2)--2-----2-----------5--(5)--5-----5---|| 
|--3-----3--3--(3)--3--3--3--6-----6--6--(6)--6--6--6---|| 
|--4-----4--4--(4)--4--4--4--6-----6--6--(6)--6--6--6---|| 
|--4-----4-------------4-----4-----4-------------4------|| 
|--2-----2-------------2--------------------------------|| 
 

Chorus 
|-----------------------------------------------| 
|----11---------11---------11----11----11-------| 
|-13----13-(13)---------------------------------| 
|------------------13-(13)----13----13----13-11-| 
|-----------------------------------------------| 
|-----------------------------------------------| 
 
|---------------------------------------------| 
|-11----11-(11)/-16-----16-----------16-16----| 
|----------------------------18-(18)-------18-| 
|----11-------------18------------------------| 
|---------------------------------------------| 
|---------------------------------------------| 
 
|--------------------------------------------| 
|----11--------11--------11---------11----11-| 
|-13----13-13--------------------------------| 
|-----------------13-13-----13---13----13----| 
|--------------------------------------------| 
|--------------------------------------------| 
  
|-----------------------------------| 
|----14--------14-------------------| 
|-----------------------------------| 
|-11----11-11-----4--8--6-6\4-4-4-4-| 
|-----------------------------------| 
|-----------------------------------| 
 
|--------------------------------------------| 
|----11--------11--------11---------11-------| 
|-13----13-13--------------------------------| 
|-----------------13-13-----13---13----13-11-| 
|--------------------------------------------| 
|--------------------------------------------| 
 
|------------------------12-----11---9----| 
|-11----11-(11)---12-12-----9------9---11-| 
|-----------------------------9-----------| 
|----11-----------------------------------| 
|-----------------------------------------| 
|-----------------------------------------| 
 
|-----------------------------------------------| 
|----11--------11----11-----11---------11-12-12-| 
|-13----13-13-----------------------------------| 
|-----------------13----13-----13---13----------| 
|-----------------------------------------------| 
|-----------------------------------------------| 
 
|-14-------14---------------12-------12----12-----|| 
|----12-12----12--12-11-11-----11-11----11----11--|| 
|-------------------------------------------------|| 
|-------------------------------------------------|| 
|-------------------------------------------------|| 
|-------------------------------------------------|| 
 

 Guitar Solo (Reversed)
|--------------|--------------------------------|----------------------| 
|--------------|--------------------------------|---------11-----------| 
|--------------|--------------------------------|------13---------13---| 
|--------------|-13-----11-13------------11-----|-(11)-----------------| 
|-9----11------|--------------------------------|----------------------| 
|--------------|--------------------------------|----------------------| 
|         <                                                    < 
|--------------|--------------------------------|----------------------| 
|--------------|--------------------------------|----------------------| 
|--------------|--------------------------------|----------------------| 
|--------------|--------------------------------|------11-11--13-------| 
|---------6----|-(6)/9-----(9)-11-(11)--(11)-13-|-(13)-----------------| 
|--------------|--------------------------------|----------------------| 

              <                                   < 
|-------------------------|------16----14-16-14--14---------------------| 
|--11-11/14-14------------|--14-----------------------------------------| 
|-------------------------|---------------------------------------------| 
|-------------------------|---------------------------------------------| 
|-------------------------|---------------------------------------------| 
|-------------------------|---------------------------------------------| 
|                                   <
|-------------------------|---------------------------------------------| 
|-----------------11------|--------------------------------14/16\14-16--| 
|------------11-------13--|-(13)----11----------(11)--(11)--------------| 
|-(13)--------------------|---------------------------------------------| 
|-------------------------|---------------------------------------------| 
|-------------------------|---------------------------------------------| 

   < 
|-16-------------(16)----18-(18)------|| 
|-------------------------------------|| 
|-------------------------------------|| 
|-------------------------------------|| 
|-------------------------------------|| 
|-------------------------------------|| 
| 
|-16-14-16-18-16--18--16-16--16--16---|| 
|-------------------------------------|| 
|-------------------------------------|| 
|-------------------------------------|| 
|-------------------------------------|| 
|-------------------------------------|| 


   Interlude 
||-----------16-(16)-------------------16-(16)----------| 
||o----16------------16----16----16------------16----16-| 
||------------------------------------------------------| 
||--14----14------------14----14----14------------14----| 
||o-----------------------------------------------------| 
||------------------------------------------------------| 
 
|----------16-(16)-------------------16-(16)------------|| 
|----14------------14----14----14------------14----14--o|| 
|-------------------------------------------------------|| 
|-16----16------------16--------------------------------|| 
|---------------------------16----16------------16-----o|| 
|-------------------------------------------------------|| 
 
||-----------16-(16)-------------------16-(16)----------| 
||o----16------------16----16----16------------16----16-| 
||------------------------------------------------------| 
||--14----14------------14----14----14------------14----| 
||o-----------------------------------------------------| 
||------------------------------------------------------| 
| 
||---0-----0--0---0---0--------0-----0--0---0---0-------| 
||o--0-----0--0---0---0--------0-----0--0---0---0-------| 
||---1-----1--1---1---1--x--x--1-----1--1---1---1--x--x-| 
||---2-----2--2---2---2--x--x--2-----2--2---2---2--x--x-| 
||o--2-----2--2---2---2--x--x--2-----2--2---2---2--x--x-| 
||---0-----0--0---0---0--x--x--0-----0--0---0---0--x--x-| 
 
|----------16-(16)-------------------16-(16)------------|| 
|----14------------14----14----14------------14----14--o|| 
|-------------------------------------------------------|| 
|-16----16------------16--------------------------------|| 
|---------------------------16----16------------16-----o|| 
|-------------------------------------------------------|| 
| 
|--2-----2--2---2---2--------4-----4--4---4---4---------|| 
|--2-----2--2---2---2--------5-----5--5---5---5--------o|| 
|--3-----3--3---3---3--x--x--6-----6--6---6---6--x--x---|| 
|--4-----4--4---4---4--x--x--6-----6--6---6---6--x--x---|| 
|--4-----4--4---4---4--x--x--4-----4--4---4---4--x--x--o|| 
|--2-----2--2---2---2--x--x----------------------x--x---|| 


 Chorus 
|-----------------------------------------------| 
|----11---------11---------11----11----11-------| 
|-13----13-(13)---------------------------------| 
|------------------13-(13)----13----13----13-11-| 
|-----------------------------------------------| 
|-----------------------------------------------| 
| 
|--0--0--0--(0)--0------------------------------| 
|--0--0--0--(0)--0--4--(4)--4--4--4--4-----4--4-| 
|--1--1--1--(1)--1--4--(4)--4--4--4--4-----4--4-| 
|--2--2--2--(2)--2--4--(4)--4--4--4--4-----4--4-| 
|--2--2--2--(2)--2--2--(2)--2--2--2--2-----2--2-| 
|--0--0--0--(0)--0------------------------------| 
 
|---------------------------------------------| 
|-11----11-(11)-/16-----16-----------16-16----| 
|----------------------------18-(18)-------18-| 
|----11-------------18------------------------| 
|---------------------------------------------| 
|---------------------------------------------| 
| 
|--2--2--2--(2)-2--0-(0)--0-0--0---0------0--0-| 
|--2--2--2--(2)-2--0-(0)--0-0--0---0------0--0-| 
|--3--3--3--(3)-3--1-(1)--1-1--1---1------1--1-| 
|--4--4--4--(4)-4--2-(2)--2-2--2---2------2--2-| 
|--4--4--4--(4)-4--2-(2)--2-2--2---2------2--2-| 
|--2--2--2--(2)-2--0-(0)--0-0--0---0------0--0-| 
 
|--------------------------------------------| 
|----11--------11--------11---------11----11-| 
|-13----13-13--------------------------------| 
|-----------------13-13-----13---13----13----| 
|--------------------------------------------| 
|--------------------------------------------| 
| 
|--0--0--0-(0)--0----------------------------| 
|--0--0--0-(0)--0--4-(4)--4--4-4--4-----4--4-| 
|--1--1--1-(1)--1--4-(4)--4--4-4--4-----4--4-| 
|--2--2--2-(2)--2--4-(4)--4--4-4--4-----4--4-| 
|--2--2--2-(2)--2--2-(2)--2--2-2--2-----2--2-| 
|--0--0--0-(0)--0----------------------------| 
 
|-----------------------------------| 
|----14--------14-------------------| 
|-----------------------------------| 
|-11----11-11-----4--8--6-6/4-4-4-4-| 
|-----------------------------------| 
|-----------------------------------| 
| 
|--0--0--0-(0)--0-2-(2)-2-2-2-2-2-2-| 
|--0--0--0-(0)--0-2-(2)-2-2-2-2-2-2-| 
|--1--1--1-(1)--1-3-(3)-3-3-3-3-3-3-| 
|--2--2--2-(2)--2-4-(4)-4-4-4-4-4-4-| 
|--2--2--2-(2)--2-4-(4)-4-4-4-4-4-4-| 
|--0--0--0-(0)--0-2-(2)-2-2-2-2-2-2-| 
 
|--------------------------------------------| 
|----11--------11--------11---------11-------| 
|-13----13-13--------------------------------| 
|-----------------13-13-----13---13----13-11-| 
|--------------------------------------------| 
|--------------------------------------------| 
| 
|--0--0--0-(0)--0----------------------------| 
|--0--0--0-(0)--0--4-(4)--4--4-4--4-----4--4-| 
|--1--1--1-(1)--1--4-(4)--4--4-4--4-----4--4-| 
|--2--2--2-(2)--2--4-(4)--4--4-4--4-----4--4-| 
|--2--2--2-(2)--2--2-(2)--2--2-2--2-----2--2-| 
|--0--0--0-(0)--0----------------------------| 
 
|------------------------12-----11---9----| 
|-11----11-(11)---12-12-----9------9---11-| 
|-----------------------------9-----------| 
|----11-----------------------------------| 
|-----------------------------------------| 
|-----------------------------------------| 
| 
|--2--2--2--(2)-2--4-(4)--4-4-4--4---4--4-| 
|--2--2--2--(2)-2--5-(5)--5-5-5--5---5--5-| 
|--3--3--3--(3)-3--4-(4)--4-4-4--4---4--4-| 
|--4--4--4--(4)-4--6-(6)--6-6-6--6---6--6-| 
|--4--4--4--(4)-4--4-(4)--4-4-4--4---4--4-| 
|--2--2--2--(2)-2-------------------------| 
 
||------------------------------------------------| 
||o----11--------11----11-----11---------11-12-12-| 
||--13----13-13-----------------------------------| 
||------------------13----13-----13---13----------| 
||o-----------------------------------------------| 
||------------------------------------------------| 
| 
||---0--0--0-(0)--0-------------------------------| 
||o--0--0--0-(0)--0--4----(4)--4--4-4--4-----4--4-| 
||---1--1--1-(1)--1--4----(4)--4--4-4--4-----4--4-| 
||---2--2--2-(2)--2--4----(4)--4--4-4--4-----4--4-| 
||o--2--2--2-(2)--2--2----(2)--2--2-2--2-----2--2-| 
||---0--0--0-(0)--0-------------------------------| 
 
|-14-------14---------------12-------12----12-----|| 
|----12-12----12--12-11-11-----11-11----11----11-o|| 
|-------------------------------------------------|| 
|-------------------------------------------------|| 
|------------------------------------------------o|| 
|-------------------------------------------------|| 
| 
|--0-----0--0-(0)--0--2-(2)--2--2--2--2-----2--2--|| 
|--0-----0--0-(0)--0--2-(2)--2--2--2--2-----2--2-o|| 
|--1-----1--1-(1)--1--3-(3)--3--3--3--3-----3--3--|| 
|--2-----2--2-(2)--2--4-(4)--4--4--4--4-----4--4--|| 
|--2-----2--2-(2)--2--4-(4)--4--4--4--4-----4--4-o|| 
|--0-----0--0-(0)--0--2-(2)--2--2--2--2-----2--2--|| 
 
|------------------------------|---------*| 
|-----11---------11------------|---------*| 
|-13-----13-(13)---------------|---------*| 
|-------------------13-(13)----|-(13)----*| 
|------------------------------|---------*| 
|------------------------------|---------*| 
| 
|--0------0---0----------------|---------*| 
|--0------0---0------4--(4)----|--(4)----*| 
|--1------1---1------4--(4)----|--(4)----*| 
|--2------2---2------4--(4)----|--(4)----*| 
|--2------2---2------2--(2)----|--(2)----*| 
|--0------0---0----------------|---------*|
Acordes para:

    0 comentários

      mostrar mais comentários

      Conseguiu tocar?

      1tocaram0ainda não

      Grave um vídeo tocando Dig e mande pra gente!

      00:00 / 00:00
      outros vídeos desta música
      repetirqualidadeautomática
      Outro vídeos desta música
        00:00 / 00:00
        automática
        OK