Cifra Club

Megalomaniac

Incubus

Cifra: Principal
exibições 64.594
Tom: C
 --> Intro:

                      4x
  e|----------------------
  B|----------------------
  G|-0--0--0--0--0--0-----
  D|-5--5--5--5--5--5^----
  A|----------------------
  E|----------------------

                                                  8x
  e|------------------------------------------------
  B|------------------------------------------------
  G|-0----0--0--0----0--0--0---0-0-0----0-0-0-0---0-
  D|-3/5--5--5--5/8--8--8--8p0-1-1-1p0--3-3-3-3p0-0-
  A|------------------------------------------------
  E|------------------------------------------------

     G       A#    D#      C    4x
  e|-------------------------------
  B|-------------------------------
  G|--------------8-8-8---5-5-5----
  D|-5-5-5/8-8-8--8-8-8---5-5-5----
  A|-5-5-5/8-8-8--6-6-6---3-3-3----
  E|-3-0-3/6-6-6-------------------
  Ahaaah!!!



 --> 1a parte:
      
                                                    
  e|------------------------------------------------------------
  B|---------6~~--------6---6-----------8---8-------------------
  G|------------------------------------------------------------
  D|-3s5--5------5s7--7---7---7--7s9--9---9---9-----------------
  A|------------------------------------------------------------
  E|------------------------------------------------------------
  I hear you on the radio

  e|-------------------------------------------
  B|-------------------------------------------
  G|----10----12h10----10-----7----10h7----7---
  D|-13----13-------13-----10---10------10-----
  A|-------------------------------------------
  E|-------------------------------------------
  You permeate in my screen
  Its' unkind but,

  e|------------------------------------------------------------
  B|------------------------------------------------------------
  G|---------10---------7----10h7----7----10----12h10----10-----
  D|-----------------10---10------10---13----13-------13--------
  A|-8h10-10------------------------------------------------14--
  E|------------------------------------------------------------
  If I met you in a scissor fight

  e|-------------------------------------------
  B|-------------------------------------------
  G|----10----12h10----10-----7----10h7----7---
  D|-13----13-------13-----10---10------10-----
  A|-------------------------------------------
  E|-------------------------------------------
  I'd cut off both your wings 
                                             2x
  e|------------------------------------------------
  B|------------------------------------------------
  G|-0----0--0--0----0--0--0---0-0-0----0-0-0-0---0-
  D|-3/5--5--5--5/8--8--8--8p0-1-1-1p0--3-3-3-3p0-0-
  A|------------------------------------------------
  E|------------------------------------------------
  On principle alone
  principle alone
 


 --> Refrão:

      G      A#  D#  C   
  e|------------------------
  B|------------------------
  G|-----------8-8-5-5------
  D|-5-5-5-8-8-8-8-5-5------
  A|-5-5-5-8-8-6-6-3-3------
  E|-3-0-3-6-6--------------
  Hey megalomaniac!
  You're no Jesus!
  Yeah, you're no fucking Elvis!
  Wash your hands clean of yourself, baby
  And step down, step down, step down!



 --> 2a Parte:


  e|----------------------------------------------------------------------------
  B|----------------------------------------------------------------------------
  G|---------10----9-10-9-10-9-10-0------10----12h10----10-----7----10h7----7---
  D|----------------------------------13----13-------13-----10---10------10-----
  A|-8h10-10--------------------------------------------------------------------
  E|----------------------------------------------------------------------------
  Uhh, uhh, uhh

  e|------------------------------------------------------------
  B|------------------------------------------------------------
  G|---------10---------7----10h7----7----10----12h10----10-----
  D|-----------------10---10------10---13----13-------13--------
  A|-8h10-10------------------------------------------------14--
  E|------------------------------------------------------------
  If I were your appendages

  e|-------------------------------------------
  B|-------------------------------------------
  G|----10----12h10----10-----7----10h7----7---
  D|-13----13-------13-----10---10------10-----
  A|-------------------------------------------
  E|-------------------------------------------
  I'd hold open your eyes
  So you'd see

  e|-----------------------------------------------------------------------------
  B|-----------------------------------------------------------------------------
  G|---------10----9-10-9-10-9-10-0------7----10h7----7----10----12h10----10-----
  D|----------------------------------10---10------10---13----13-------13--------
  A|-8h10-10-----------------------------------------------------------------14--
  E|-----------------------------------------------------------------------------
  That all of us are heaven sent
  (There was never meant to be only one)

  e|-------------------------------------------
  B|-------------------------------------------
  G|----10----12h10----10-----7----10h7----7---
  D|-13----13-------13-----10---10------10-----
  A|-------------------------------------------
  E|-------------------------------------------
  And there was never meant to be only one
                                             2x
  e|------------------------------------------------
  B|------------------------------------------------
  G|-0----0--0--0----0--0--0---0-0-0----0-0-0-0---0-
  D|-3/5--5--5--5/8--8--8--8p0-1-1-1p0--3-3-3-3p0-0-
  A|------------------------------------------------
  E|------------------------------------------------
  To be only one    



 --> Refrão:

      G      A#  D#  C   
  e|------------------------
  B|------------------------
  G|-----------8-8-5-5------
  D|-5-5-5-8-8-8-8-5-5------
  A|-5-5-5-8-8-6-6-3-3------
  E|-3-0-3-6-6--------------
  Hey megalomaniac!
  You're no Jesus!
  Yeah, you're no fucking Elvis!
  Wash your hands clean of yourself, baby
  And step down, step down, step down!
  Step down! Step down! Ohh, step down!
  
  (soh o baixo)
  uhhh, uhhh, uhh, uhh
  uhhh, uuuh, uhh, uh, uh, uh



 --> Riff2:

                                                                   2x 
  e|---8-10---8-10---8-10-8---8-10-----8-10---8-10---8-10-8---10-8----
  B|-6------6------6--------6------6-8------8------8--------8------8--
  G|------------------------------------------------------------------
  D|------------------------------------------------------------------
  A|------------------------------------------------------------------
  E|------------------------------------------------------------------
 

 --> Riff3:
                                   
  e|---------------------------------
  B|-8-8-6-8--8--6-8-8--6-8-10-8-6---
  G|---------------------------------
  D|---------------------------------
  A|---------------------------------
  E|---------------------------------
  You're no Jesus
  You're not Elvis
  You're no Jesus
  You're no Jesus
  You're not Elvis
  You're no answer
  uhh, uhh
                        (abafado)
  e|-------------------------------
  B|-------------------------------
  G|-------------------------------
  D|-------------------------------
  A|-------------6-6-6-0-3-3-3-0---
  E|-3-0-3-6-6-0-------------------
  Step down, step down
  Step down, step down... hey



 --> Refrão:

      G      A#  D#  C   
  e|------------------------
  B|------------------------
  G|-----------8-8-5-5------
  D|-5-5-5-8-8-8-8-5-5------
  A|-5-5-5-8-8-6-6-3-3------
  E|-3-0-3-6-6--------------
  Hey megalomaniac!
  You're no Jesus!
  Yeah, you're no fucking Elvis!
  Wash your hands clean of yourself, baby
  And step down, step, step down, step down!
  Ohh, step down! Ohh, step down! Step down!

0 comentários

    mostrar mais comentários

    Conseguiu tocar?

    2tocaram0ainda não

    Grave um vídeo tocando Megalomaniac e mande pra gente!

    00:00 / 00:00
    outros vídeos desta música
    repetirqualidadeautomática
    Outro vídeos desta música
      00:00 / 00:00
      automática
      OK