Cifra Club

Nice To Know You

Incubus

Cifra: Principal (violão e guitarra)
tom: B
Tuning: Standard EADGBE 

Equipment: PRS Hollowbody II guitar, Ernie Ball strings, 
2 BOSS PH-2 Super Phaser Pedals, MXR phase 90 pedal, 
Mesa Boogie Amp or at least thats what incubus geak Thom Mills tells us 
 
TAB EXPLANATION 
 
H       = hammer on                     <>        = harmonic 
P       = pull off                      NH_|    = natural harmonic 
tr~     = trill                         PH_|    = pinch harmonic 
S       = slide                         AHx     = artificial harmonic 
/       = slide up                      THx     = tapped harmonic 
\       = slide down                    TCH     = touch harmonic 
{}      = fret hand tap                 ~G      = gargle (usually with tremolo) 
X       = fret hand mute                ()      = ghost note 
BU      = bend up                       {}      = pick hand tap 
BD      = bend down                     (x)~    = pick scrape 
rp      = re pick (bend)                pb      = pre bend 
w/bar_| = perform with tremolo arm      ~       = vibrato 
 
 
Intro w/ Phaser, Volume Swell Through Clean Channel 
|--------| 
|o--12--o| 
|---13---| 
|---9----| 
|o------o| 
|--------| 
Gently strum chord with your thumb or palm 
 
 
Chorus w/Distortion 
|------------------------------------------------------------| 
|o----------------------------------------------------------o| 
|------------7-7---------------------7-7---------------------| 
|--2--4-4-2--7-7-0--2-4-4--2--4-4-2--7-7-0--2-4-4-2-4-7-7-7--| 
|o-2--4-4-2--5-5-0--2-4-4--2--4-4-2--5-5-0--2-4-4-2-4-7-7-7-o| 
|--0--2-2-0--5-5-0--0-2-2--0--2-2-0--5-5-0--0-2-2-0-2-5-5-5--| 
 
 
Verse w/ Phaser ,Volume Swell through clean channel 
|------|--0---|--------| 
|--12--|--14--|--------| 
|--13--|--14--|--------| 
|--9---|--12--|--------| 
|------|------|--x/~~--| 
|------|------|--x/~~--| 
 
 
Pre chorus clean channel 
|--0--|--0--|--0--|--0--| 
|--0--|--0--|--0--|--0--| 
|--2--|--1--|--4--|--3--| 
|--2--|--2--|--5--|--4--| 
|--0--|--0--|--5--|--4--| 
|-----|-----|--3--|--2--| 
 
repeat Chorus 
verse 
pre chorus 
chorus 
 
Bridge 
|---------0--0-0-0-0--0-0--0---------0--0-0-0-0--0-0--0---0-0-0-0-0--0-0-0--0--| 
|---------0--0-0-0-0--0-0--0---------0--0-0-0-0--0-0--0---0-0-0-0-0--0-0-0--0--| 
|---------0--0-0-0-0--0-0--0---------0--0-0-0-0--0-0--0---0-0-0-0-0--0-0-0--0--| 
|---------4--4-4\2-2--2-2--2---------4--4-4\2-2--2-2--2---2/4-4-4\2--2-2-2--2--| 
|-0-3-5---5--5-5\3-3--3-3--3-0-3-5---5--5-5\3-3--3-3--3---3/5-5-5\3--3-3-3--3--| 
|-------5--------------------------5-------------------------------------------| 
 
|-----------0---0-0--0-0--0-------------0---0-0--0-0--0---0-0-0-0-0--0-0-0--0--| 
|------------0--0-0--0-0--0--------------0--0-0--0-0--0---0-0-0-0-0--0-0-0--0--| 
|----------0----0-0--0-0--0------------0----0-0--0-0--0---0-0-0-0-0--0-0-0--0--| 
|---------4----\2-2--2-2--2-----------4----\2-2--2-2--2---2/4-4-4\2--2-2-2--2--| 
|-0-3-5--5-----\3-3--3-3--3--0-3-5---5-----\3-3--3-3--3---3/5-5-5\3--3-3-3--3--| 
|-------5---------------------------5------------------------------------------| 
 
|---------0--0-0-0-0--0-0-0-------------0---0-0--0-0--0---0-0-0-0-0--0-0-0--0--| 
|---------0--0-0-0-0--0-0-0--------------0--0-0--0-0--0---0-0-0-0-0--0-0-0--0--| 
|---------0--0-0-0-0--0-0-0------------0----0-0--0-0--0---0-0-0-0-0--0-0-0--0--| 
|---------4--4-4\2-2--2-2-2-----------4----\2-2--2-2--2---2/4-4-4\2--2-2-2--2--| 
|-0-3-5---5--5-5\3-3--3-3-3--0-3-5---5-----\3-3--3-3--3---3/5-5-5\3--3-3-3--3--| 
|-------5---------------------------5------------------------------------------| 
 
Repeat Chorus 
 
Outro 
|--0-0--| 
|--0-0--| 
|--2-2--| 
|--2-2--| 
|--0-0--| 
|-------| 
 
ORDER 
Intro 
Chorus 
Verse 
Pre-Chorus 
Chorus 
Verse 
Pre-Chorus 
Chorus 
Bridge 
Chorus 
Outro
00:00 / 00:00
Outros vídeos desta música
Repetir
Outros vídeos desta música
Composição de Alex Katunich / Brandon Boyd / Chris DJ Kilmore / Jose Antonio Pasillas II / Michael Einziger
Colaboração e revisão:
  • Pedro Neto
17.130 exibições
    • ½ Tom
    • A
    • Bb
    • B
    • C
    • Db
    • D
    • Eb
    • E
    • F
    • F#
    • G
    • Ab
  • Adicionar à lista

    0 comentários

    Ver todos os comentários

    Conseguiu tocar?

    1 Tocaram 0 Ainda não

    Grave um vídeo tocando Nice To Know You e nos envie!

    Entre para oCifra Club PRO

    Tenha acesso a benefícios exclusivos no App e no Site

    • Chega de anúncios

    • Prioridade de compra em lançamentos

    • Mais recursos no app do Afinador

    • Atendimento Prioritário

    • Descontos nos produtos Cifra Club

    • Ajude a produzir mais conteúdo

    00:00 / 00:00

    Cifra Club Pro

    Aproveite o Cifra Club com benefícios exclusivos e sem anúncios
    Cifra Club Pro
    Aproveite o Cifra Club com benefícios exclusivos e sem anúncios
    OK