Cifra Club

Stellar

Incubus

Cifra: Principal
exibições 65.270
Tom: A
Verso:
--------------------------------------------------------------------------|---
------------------------------------------------------------------------*-|---
-------9/11-b11-^6-----------------------9/11-^11-^6----------------------|---
-----9-9/11-b11-^6-6-----6-6---6-7-----9-9/11-^11-^6--6-----6-6-----6-----|---
-0-------------------4-4-4---5------0-------------------4-4-4---7-7-----*-|---
--------------------------------------------------------------------------|---
                                        
Pré Refrão
------------------------------------------------------------------------------
------------------------------------------------------------------------------
-7--7-7--7-7-7-7--7--7--7-7-7--4--4---4-4-4-4--4-4--4-4-4-4-------------------
-7--7-7--7-7-7-7--7--7--7-7-7--4--4---4-4-4-4--4-4--4-4-4-4-----7-------------
-5--5-5--5-5-5-5--5--5--5-5-5--2--2---2-2-2-2--2-2--2-2-2-2-----7-------------
----------------------------------------------------------------5-------------
                                                                              
Refrão
------------------------------------------------------------------------------
------------------------------------------------------------------------------
------------------------------------------------------------------------------
-7--7--7--7--------6-6-----6--7--7--7--7----6-6---6-7---7--7--7--7-------6-6--
-7--7--7--7---4--4-----7-7----7--7--7--7--4-----5-------7--7--7--7--4--4------
-5--5--5--5-------------------5--5--5--5----------------5--5--5--5------------
                                                     
Verso:
--------------------------------------|-------------------------------------|-
--------------------------------------|*-----------------------------------*|-
--------------------------------------|----9-9/11-11-----9-9/6--6--------9--|-
------6--7--7--7--7--7------6-6---6-7-|----9-9/11-11-----9-9/6--6--------9--|-
-7-7-----7--7--7--7--7--4-4-----5-----|*-0------------0--------------0-----*|-
---------5--5--5--5--5----------------|-------------------------------------|-
                                                                              

------------------------------------------------------------------------------
------------------------------------------------------------------------------
-9/11-b11--^6-----------------9--9/11-^11-^6----------------------------------
-9/11-b11--^6-----6-6---6-7---9--9-11-^11-^6--6-----6-6-----6-----------------
--------------4-4-4---5-----0-------------------4-4-4---7-7-------------------
------------------------------------------------------------------------------
  
Solo:
-------------------------------------------------------------------------0--|-
-------------------------------------------------------------------------0-*|-
-------------------------------------------------------------------------4--|-
-----0--0----------0--0-----------0--0-------2-2---------2-2---------7---7--|-
---7------7------7------7-------5----5-----2-----2-----2-----2-----5---5---*|-
-5----------5--5----------53-3------3---0---------0-0---------0-3----------|-

-----------|------------------------------------------------------------------
-----------|------------------------------------------------------------------
-----------|------------------------------------------------------------------
-----7---5-|---------------------------7--------------------------------------
---5---5-5-|-5-5--5-5-5-5-5-5-5-5------7--------------------------------------
-3-------3-|-3-3--3-3-3-3-3-3-3-3------5--------------------------------------
 


Refrão variado
-----------------------------|------------------------------------------------
-----------------------------|------------------------------------------------
---------6-6---------------*-|-6------7---------------------------------------
-7-7-7-7-6-6-6-6-2-2-6--7----|-6-6-6--7-6-7---7-------------------------------
-7-7-7-7-4-4-6-6-2-2-6--7--*-|-4-6-6--5-6-7---7-------------------------------
-5-5-5-5-----4-4-0-0-4--5----|---4-4----4-5---5-------------------------------




Final:
------------------------------------------------------------------------------
------------------------------------------------------------------------------
------------------------------------------------------------------------------
---6-6---6-7------6-6---6-7--------9------------------------------------------
-4-----5------4-4-----5------------7------------------------------------------
-----------------------------------5------------------------------------------
Acordes para:

    0 comentários

      mostrar mais comentários

      Conseguiu tocar?

      5tocaram0ainda não

      Grave um vídeo tocando Stellar e mande pra gente!

      00:00 / 00:00
      outros vídeos desta música
      repetirqualidadeautomática
      Outro vídeos desta música
        00:00 / 00:00
        automática
        OK