Cifra Club

Fixing A Broken Heart

Indecent Obsession

Cifra: Principal (violão e guitarra)
tom: A
Tabbed by: Gilbert Bumanlag
Tuning:    Standard

Intro:

E---------------------|
B------2---3---0---2--|
G------------------2--|
D----2----------------|
A--0-----0---0---0----|
E---------------------|

Verse:

E-----------0----------------------|
B--0--0--0--0--3--0----------------|
G--2--2--2--2--2--2--1--1--1h2--1--|
D--2--2--2--------2--2--2--2----2--|
A--0-----------2—-0--2--2--2----2--|
E-----4--2--0--------0--0--0----0--|
                        U


Pre-Chorus:

E-------------------------0--2--|
B--0--0--0--0--2h3--2--3--0--3--|
G--2--2--2--2--2----2--2--2--2--|
D--2--2--2--2--2----2--------0--|
A--------0--0--0—---0--2--4-----|
E--2--4-------------------------|
            U

Chorus:

E-----------0----------------------|
B--0--0--0--0--3--0----------------|
G--2--2--2--2--2--2--1--1--1h2--1--|
D--2--2--2--------2--2--2--2----2--|
A--0-----------2—-0--2--2--2----2--|
E-----4--2--0--------0--0--0----0--|
                        U

E-----------------0-----|
B--0--0--0--0--3--0-----|
G--2--2--2--2--2--2--1--|
D--2--2--2--2--------2--|
A--0-----------2—-4--2--|
E-----4--3--2--------0--|

E--------------|
B--0--0--0--0--|
G--2--2--2--2--|
D--2--2--2--2--|
A--0-----------|
E-----4--2--0--|

This is played after the 2nd chorus and before the bridge:

E----------------------|
B------0---0---0----2--|
G----------2---2----2--|
D----2--------------2--|
A--0-----0---0---0--0--|
E----------------------|

Bridge:

E--0--2--2-----0~-|
B--0--2--3--0--3~-|
G--0--3--4--2--2~-|
D--2--4--4--2--0~-|
A--2--4--2--0-----|
E--0--2-----------|

-End-

That’s it! 100% accurate.
Compositor não encontrado.
433 exibições
    • ½ Tom
    • A
    • Bb
    • B
    • C
    • Db
    • D
    • Eb
    • E
    • F
    • F#
    • G
    • Ab
  • Adicionar à lista

    0 comentários

    Ver todos os comentários

    Conseguiu tocar?

    0 Tocaram 0 Ainda não

    Grave um vídeo tocando Fixing A Broken Heart e nos envie!

    00:00 / 00:00
    Outros vídeos desta música
    Repetir Qualidade Automático
    Outros vídeos desta música
    00:00 / 00:00
    Automático

    Cifra Club Pro

    Aproveite o Cifra Club com benefícios exclusivos e sem anúncios
    Cifra Club Pro
    Aproveite o Cifra Club com benefícios exclusivos e sem anúncios
    OK