Cifra Club

Union War

Indochine

Cifra: Principal (violão e guitarra)
Selo Cifra Club: esta cifra foi revisada para atender aos critérios oficiais da nossa Equipe de Qualidade.
tom: Am
G  C  Am  E  G  C  Am  E

[Verse 1]

G          C
Je vais partir
Am         E
Fleur au fusil
G         C
Je vais mourir
Am          E
J'n'ai pas envie
G              C
Je voulais juste déposer
   Am          E
Un baiser à tes pieds
G            C
Blotti contrd la barrière
    Am           E
Des baisers parmilliers
G              C
J'aime trop la vie
Am          E
Pour mourir ici
G                C
C'est quoi cette guerre
Am              E
Que nous allons faire?


G  C Am  E  

[Verse 2]


G          C
Je vais partir
Am         E
Fleur au fusil
G          C
Marcher la nuit
Am     E
Tuer la vie
G                C
Je voulais juste me coucher
    Am               E
Par terre, comme un bébé
G             C
Je reviendrai sûrement blessé
Am               E
Comme un corps cassé


[Chorus]


    G       C         Am            E         G       C         Am              E
   Are you so far?    Wanna be your mind      Are you so lies ? Wake up in your mind

E|-9---12---7---------7--9--7---5----9--------9---12---7---------7---9---7---5-----------|
B|--------------------------------------------------------------------------------7------|
G|---------------------------------------------------------------------------------------|
D|---------------------------------------------------------------------------------------|
A|---------------------------------------------------------------------------------------|
E|---------------------------------------------------------------------------------------|


G  C Am  E 

[Verse 3]

G          C
Je vais partir
Am         E
Fleur au fusil
G        C
Adieu la vie
Am       E
A nos ennemis
G             C
À la fille souillée
            Am          E
Comme à des garçons déchirés
G            C
Et comprenne qui voudra
   Am              E
Comprendre qui restera


[Chorus]


    G       C         Am            E         G       C         Am              E
   Are you so far?    Wanna be your mind      Are you so lies ? Wake up in your mind

E|-9---12---7---------7--9--7---5----9--------9---12---7---------7---9---7---5-----------|
B|--------------------------------------------------------------------------------7------|
G|---------------------------------------------------------------------------------------|
D|---------------------------------------------------------------------------------------|
A|---------------------------------------------------------------------------------------|
E|---------------------------------------------------------------------------------------|

[Bridge]

G  C Am  E   G  C Am  E

[Outro]

G       C       Am            E
We are, we are, we are in the war
G       C       Am            E
We are, we are, we are in the war

G       C       Am            E
La la., la la., la la. la la. la.
G       C       Am            E
La la., la la., la la. la la. la.
00:00 / 00:00
Outros vídeos desta música
Repetir
Outros vídeos desta música
4 exibições
    • ½ Tom
    • Am
    • Bbm
    • Bm
    • Cm
    • C#m
    • Dm
    • Ebm
    • Em
    • Fm
    • F#m
    • Gm
    • G#m
  • Adicionar à lista

Afinação da cifra

Afinador online

    0 comentários

    Ver todos os comentários

    Entre para o Cifra Club PRO

    Tenha acesso a benefícios exclusivos no App e no Site

    • Chega de anúncios

    • Mais recursos no app do Afinador

    • Atendimento Prioritário

    • Aumente seu limite de lista

    • Ajude a produzir mais conteúdo

    00:00 / 00:00

    Cifra Club Pro

    Aproveite o Cifra Club com benefícios exclusivos e sem anúncios
    Cifra Club Pro
    Aproveite o Cifra Club com benefícios exclusivos e sem anúncios
    OK