Cifra Club

Aprenda

Evil

Interpol

Tab de baixo: Versão 3
Tabbed By : Joe
e-mail: *

Tuning:DADG (Drop D)
  Verse
  Part A
G|---------------------------------------------------------------------------|
D|---------------------------------------------------------------------------|
A|--8--8-8--------------5-5----8--8-8--------------5-5-5---------------------|
D|---------8-8-8-7--7-7-----7---------8-8-8-7--7-7---------------------------|
  Part B
G|---------------------------------------------------------------------------|
D|---------------------------------------------------------------------------|
A|--8--8-8--------------5-5----8--8-8------------5-5-5-5---------------------|
D|---------8-8-8-7--7-7-----7---------8-8-8-7--7-----------------------------|
  Part C
G|--------------------------------------------------------------------------------------|
D|--------------------------------------------------------------------------------------|
A|--8--8-8---------------8--8-8-------------5-5-7-7-------------------------------------|
D|---------8-8-8-7--7-7---------8-8-8-7--7----------------------------------------------|
  Part D
G|--------------------------------------------------------------------------------------|
D|--------------------------------------------------------------------------------------|
A|--8--8-8--------------5-5----8-8-8-8-----------------5-5-7-7--------------------------|
D|---------8-8-8-7--7-7-----7----------8-8-8-8-7-7-7-7----------------------------------|
  Break
G|--------------------------------------------7-7----------------------------|
D|--------------------------------8-8---7-7----------------------------------|
A|--------------5-5--5----------------8-----5--------------------------------|
D|--3--8-8--8-7---------3--8-8--8--------------------------------------------|

G|---------------------------------------------------------------------------|
D|---------------------------------------------------------------------------|
A|--------------5-5--5--------------5-5-5-5-5-5------------------------------|
D|--3--8-8--8-7---------3--8-8--8-7------------------------------------------|

G|---------------------------------------------------------------------------|
D|---------------------------------------------------------------------------|
A|--8-8---------------------5-5-----8-8---------------------5-5-5-5-5-5------|
D|----------8-8-----7-7----------------------8-8-----7-7---------------------|
  Chorus
G|---------------------------------------------------------------------------|
D|---------------------------------------------------------------------------|
A|--8-8-8-8-8-8-8-8-5-5-5-5-5-5-5-0-1-1-1-1-1-1-1-1-0-0-0-0-0-0-0-0----------|
D|---------------------------------------------------------------------------|

G|---------------------------------------------------------------------------|
D|---------------------------------------------------------------------------|
A|--3-3-3-3-3-3-3-3-1-1-1-1-5-5-7-7------------------------------------------|
D|---------------------------------------------------------------------------|
  Break 2
G|---------------------------------------------------------------------------|
D|---------------------------------------------------------------------------|
A|--8----------------------------------------------------5-5-7-7-------------|
D|---------------------------------------------------------------------------|
  End
G|---------------------------------------------------------------------------|
D|---------------------------------------------------------------------------|
A|--8-8-8-8-8-8-8-8-5-5-5-5-5-5-5-5-3-3-3-3-3-3-3-3-13-13-13-13-5-5-7-7-8~---|
D|---------------------------------------------------------------------------|
Order
Verse
Part A
Part B
Part A
Part C
Part C
Break
Chorus
Verse
Part A
Part C
Part C
Break
ChorusX2
Break 2
Verse
Part C
Part B
Part C
ChorusX2
End
| /  slide up
| \  slide down
| h  hammer-on
| p  pull-off
| ~  vibrato
| +  harmonic
| x  Mute note
===============================================================================
Composição de Interpol
Colaboração e revisão:
  • Weinblut Jäger
250 exibições

0 comentários

Ver todos os comentários

Conseguiu tocar?

0 Tocaram 0 Ainda não

Grave um vídeo tocando Evil e nos envie!

00:00 / 00:00
outros vídeos desta música
repetir qualidade Automático
Outros vídeos desta música
00:00 / 00:00
Automático

Cifra Club Pro

Aproveite o Cifra Club com benefícios exclusivos e sem anúncios
Cifra Club Pro
Aproveite o Cifra Club com benefícios exclusivos e sem anúncios
OK