Cifra Club

Aprenda

Mascara

Interpol

Cifra: Principal (violão e guitarra)
tom: C
Guitar 1

Part 1
e--1---1---0---0-------------------------------|
B--3---2---1---0-------------------------------|
G--2---2---2---2-------------------------------|
D----------------------------------------------|
A----------------------------------------------|
E----------------------------------------------|

Part 2
e----------------------------------------------|
B--3-3-3-3-2-2-2-2-2-2-2-2-2-2-2-2-------------|
G---3-3-3-3-3-3-3-3-2-2-2-2-0-0-0-0------------|
D----------------------------------------------|
A----------------------------------------------|
E----------------------------------------------|


Guitar 2

Part 1
e------------------------------------------------|
B------------------------------------------------|
G------------------------------------------------|
D--2-3----3-2---2/5-5/7-7/2-2-3-3--0-1-2---------|
A------------------------------------------------|
E------------------------------------------------|

Part 2
e----------------------------------------------|
B----------------------------------------------|
G--3---3/7---/2--------------------------------|
D----------------------------------------------|
A----------------------------------------------|
E----------------------------------------------|

Part 3
e--1--1-3--3-3-1-5-5--3-1-0-1--9--9--9--9--10--10--10--10---|
B-------------------------------10-10-10-10--10--10--10--10-|
G-----------------------------------------------------------|
D-----------------------------------------------------------|
A-----------------------------------------------------------|
E-----------------------------------------------------------|

Part 4
e--8------8---6---10---8---8-------8---6---10---8---8-------|
B--8------8---8---8----8---8-------8---8---8----8---8-------|
G-----------------------------------------------------------|
D-----------------------------------------------------------|
A-----------------------------------------------------------|
E-----------------------------------------------------------|

Guitar 1
Part 1 x3
(Break)
Part 1 x2
Part 2 x1

Guitar 2
Part 1 x3
Part 2 x2
Part 1 x2
(Break)
Part 3 x2
Part 4 x1


--------------------------------------------------------

Album: Unreleased. Only played live.
Tabbed by: Peter Haden
Please send comments to *
Composição de Paul Banks
559 exibições
    • ½ Tom
    • A
    • Bb
    • B
    • C
    • Db
    • D
    • Eb
    • E
    • F
    • F#
    • G
    • Ab
  • Adicionar à lista

    0 comentários

    Ver todos os comentários

    Conseguiu tocar?

    0 Tocaram 0 Ainda não

    Grave um vídeo tocando Mascara e nos envie!

    00:00 / 00:00
    outros vídeos desta música
    repetir qualidade Automático
    Outros vídeos desta música
    00:00 / 00:00
    Automático

    Cifra Club Pro

    Aproveite o Cifra Club com benefícios exclusivos e sem anúncios
    Cifra Club Pro
    Aproveite o Cifra Club com benefícios exclusivos e sem anúncios
    OK