Cifra Club

Eres Mi Droga

Intocable

Cifra: Principal (violão e guitarra)
Selo Cifra Club: esta cifra foi revisada para atender aos critérios oficiais da nossa Equipe de Qualidade.
tom: A
Intro de Acordeon (A, F#m, D, F)X 2

E|-------------------------------------9-9-9-9-9h11--------|
B|------------10-10-10-10--12-12-12-12-------------12-9-9-9|
G|-11-11-11-11---------------------------------------------|
D|---------------------------------------------------------|

E|-11-9--9-9-9-9-10-10-10-10-11-11-11-11-12-12-12-12-9h11---|
B|-----12------------------------------------------------12-|
G|----------------------------------------------------------|
D|----------------------------------------------------------|

E|-------11-9--9h11---------11-9--9-9-9-9-10-10-10-10-11-11-|
B|-9-9-9-----12----12-9-9-9-----12--------------------------|
G|----------------------------------------------------------|
D|----------------------------------------------------------|

E|-11-11--12-12-12-12-9-11-9--9-9-11-9--9-11-11-------------|
B|--------------------------12--------12--------------------|
G|----------------------------------------------------------|
D|----------------------------------------------------------|


A                       F#m
Eres tu la droga de mi cuerpo
                 D
y dejarte ya no puedo
                    E
porque eres de mi sangre
              C#m
una gran necesidad
               F#m
que no puedo calmar,
                D            E    E7
aunque seas prohibida en sociedad


A                    F#m
Puedes acabar hasta mi vida
                    D
inyectandome a escondidas
                  E
porque no puedo evitarlo
                   C#m
que de ti miedo me da
                  F#m
cuando te llego a amar,
         D               E
una sobredosis me pueda matar


          A
Eres mi droga

eres mi vicio
          C#m
eres mi sombra
                   D
tantas cosas me provocas
                   E     E7
cuando hacemos el amor



        A
Eres peligro

eres un mal
        C#m
eres veneno
                  D
amante pasion de fuego
                  E
que consume mi interior


         F#m
Mis venas ya
     C#m
las tengo que injectar
   D
de ti
             E
yo necesito mas
Outros vídeos desta música
    1.029 exibições
      • ½ Tom
      • A
      • Bb
      • B
      • C
      • Db
      • D
      • Eb
      • E
      • F
      • F#
      • G
      • Ab
    • Adicionar à lista

    Afinação da cifra

    Afinador online

      0 comentários

      Ver todos os comentários

      Conseguiu tocar?

      0Tocaram0Ainda não

      Grave um vídeo tocando Eres Mi Droga e nos envie!

      Toque também

      1. Imagem do artista Joan SebastianEso Y Mas Joan Sebastian
      2. Imagem do artista DueloPuño de diamantes Duelo
      3. Imagem do artista Banda El Recodo De Cruz LizárragaLa Mejor de Todas Banda El Recodo De Cruz Lizárraga
      4. Imagem do artista PesadoMi primer amor Pesado

      Entre para o Cifra Club PRO

      Tenha acesso a benefícios exclusivos no App e no Site

      • Chega de anúncios

      • Badges exclusivas

      • Mais recursos no app do Afinador

      • Atendimento Prioritário

      • Aumente seu limite de lista

      • Ajude a produzir mais conteúdo

      Cifra Club Pro

      Aproveite o Cifra Club com benefícios exclusivos e sem anúncios
      Cifra Club Pro
      Aproveite o Cifra Club com benefícios exclusivos e sem anúncios
      OK