Cifra Club

Hot Girls

INXS

Cifra: Principal (violão e guitarra)
Selo Cifra Club: esta cifra foi revisada para atender aos critérios oficiais da nossa Equipe de Qualidade.
tom: Bb
Since this tab isn't up here already, I thought i'd put it up. It's not the greatest...

I think the intro is base, but the guitar part during the verse goes something like this:

Looking out my window at some girl as i'm writing this...
|--------------------------------------------------------------------|
|--------------------------------------------------------------------|
|--------------------------------------------------------------------|
|----10-10-10-10-8-8-8-8-5-5-5-8-8-8-8-8-----------------------------|
|--------------------------------------------------------------------|
|--------------------------------------------------------------------|

Chorus:
*strum each chord 8 times.

Hot girls, they can break me...
|--------------------------------------------------------------------|
|--------------------------------------------------------------------|
|--------------------------------------------------------------------|
|---------------8----------------------------------------------------|
|------10-------6---------6----------3-------------------------------|
|------8------------------4----------1-------------------------------|

Older lips and paper...
|--------------------------------------------------------------------|
|--------------------------------------------------------------------|
|--------------------------------------------------------------------|
|------8-------10----------------------------------------------------|
|------6-------8----10-10-10---8------10-10--------------------------|
|--------------------8--8--8---6------8--8---------------------------|

I've got nothing to prove, ain't got nothing to lose...
|--------------------------------------------------------------------|
|--------------------------------------------------------------------|
|--------------------------------------------------------------------|
|--------------------------------------------------------------------|
|------6-------3------6-------3--------------------------------------|
|------4-------1------4-------1--------------------------------------|

That's as much as i've figured out so far. I didn't put the rythyms here but they're 
simple to figure out if you listen to the song. There's also a picking part during the 
that i'm still working on.

-Karla
Outros vídeos desta música
908 exibições
    • ½ Tom
    • A
    • Bb
    • B
    • C
    • Db
    • D
    • Eb
    • E
    • F
    • F#
    • G
    • Ab
  • Adicionar à lista

Afinação da cifra

Afinador online

    0 comentários

    Ver todos os comentários

    Entre para o Cifra Club PRO

    Tenha acesso a benefícios exclusivos no App e no Site

    • Chega de anúncios

    • Mais recursos no app do Afinador

    • Atendimento Prioritário

    • Aumente seu limite de lista

    • Ajude a produzir mais conteúdo

    Cifra Club Pro

    Aproveite o Cifra Club com benefícios exclusivos e sem anúncios
    Cifra Club Pro
    Aproveite o Cifra Club com benefícios exclusivos e sem anúncios
    OK