Enviar cifraEntrar

Never Tear us Apart

INXS

Cifra: Principal
exibições 77.345
Tom: C
Intro: Am  F  Dm  F  (3x)
       Am  Dm  Fm

      Am                F
Don't ask me what you know is true
               Dm          F
Don't have to tell you, I love your precious heart

Refrão:
C  F         C      F
I,   I was standing
           C    F
you were there
               C        F
Two worlds collided
                G
and they could never tear us apart...

Solo:

E|-------------------------------
B|-------------------------------
G|-------------------------------
D|-------------------------------
A|-----0--3-5-0----0----3-5--0---
E|-------------------------------


          Am
We could live
        F
For a thousand years
          Dm
But if I hurt you
          F
I'd make wine from your tears

   Am
I told you
      F
That we could fly
          Dm
'Cause we all have wings
     F
But some of us don't know why

Refrão:
C  F         C      F
     I was standing
           C    F
you were there
               C        F
Two worlds collided
                G
and they could never tear us apart...

Solo 2:

E|--------------------------------
B|--------------------------------
G|----------------------0---------
D|--------------------------------
A|-----0--3-5-0---0---3---0-------
E|--------------------------------


Solo Sax: Am  F  Dm  F


E|-11/12b~~~~~~12-11-10-7/8-----------12/15-12p10-12-12b--10-8--8/10-10/12-12/13-13/15-
B|---------------------------10p8-10---------------------------------------------------
G|-------------------------------------------------------------------------------------
D|-------------------------------------------------------------------------------------
A|-------------------------------------------------------------------------------------
E|-------------------------------------------------------------------------------------


Refrão:
C  F         C      F
I,   I was standing
           C    F
you were there
               C        F
Two worlds collided
                G
and they could never tear us apart...
  • 1
  • 2
  • 3
  • 4
  • 5
  • 6
  • 7
  • 8
  • 9
  • 10
  • 11
  • 12
    Acordes para:

      0 comentários

        mostrar mais comentários

        Conseguiu tocar?

        6tocaram0ainda não

        Grave um vídeo tocando Never Tear us Apart e mande pra gente!

        00:00 / 00:00
        outros vídeos desta música
        repetirqualidadeautomática
        • automática
        Outro vídeos desta música
          00:00 / 00:00
          automática
          • automática
          Acordes para:violão e guitarra
          dificuldadeexibiçõescontribuições
          2 versões de Tab de baixoexibiçõescontribuições
          fecharplay/pause subir/descer velocidade
            acordes
            fechar
            OK
            Feedback